Louis-jean Cormier

Jouer Des Tours

Louis-jean Cormier

tabs

by  VSWORLD

save to print version add songbook text version e-mail correct tuner
chordsukulelecavacokeyboardtabbassdrumsharmonicaflute Guitar Pro
close

there isn't a video lesson for this song

chords

Jouer Des Tours

	  		

Tuning: Standard 


  Verse 
e|-------------------|-------------------|-----------------|-----------------| 
B|-------------------|-------------------|-----------------|-----------------| 
G|-------------------|-----------------6-|---5---4---4---2-|---2---1---1---1-| 
D|-----2---2---2---2-|-----2---2---2-----|-----------------|-----------------| x4 
A|-2h4-----2---------|-2h4-----2-------7-|---7---6---5---4-|---3---2---2---2-| 
E|-0-----0---0---0---|-0-----0---0---0---|-0---0---0---0---|-0---0---0---0---| 


  Chorus 
e|-----------------|-----------------|-----------------| 
B|-----------------|-----------5---5-|-----------------| 
G|---8---8---8---8-|---5---5---------|---3---3---3---3-| 
D|-----------------|-----------6---6-|-----------------| 
A|---9---9---9---9-|---6---6-4---4---|---4---4---4---4-| 
E|-7---7---7---7---|-4---4-----------|-2---2---2---2---| 

e|-----------------|-----------------|-----------------|------------| 
B|-----------------|-----------5---5-|-----------------|------------| 
G|---8---8---8---8-|---5---5---------|---3---3---3---3-|-2-3-4-5--4-| 
D|-----------------|-----------6---6-|-----------------|------------| 
A|---9---9---9---9-|---6---6-4---4---|---4---4---4---4-|------------| 
E|-7---7---7---7---|-4---4-----------|-2---2---2---2---|-2-3-4-5--4-| 



  Verse 
e|-------------------|-------------------|-----------------|-----------------| 
B|-------------------|-------------------|-----------------|-----------------| 
G|-------------------|-----------------6-|---5---4---4---2-|---2---1---1---1-| 
D|-----2---2---2---2-|-----2---2---2-----|-----------------|-----------------| x4 
A|-2h4-----2---------|-2h4-----2-------7-|---7---6---5---4-|---3---2---2---2-| 
E|-0-----0---0---0---|-0-----0---0---0---|-0---0---0---0---|-0---0---0---0---| 


  Chorus 
e|-----------------|-----------------|-----------------| 
B|-----------------|-----------5---5-|-----------------| 
G|---8---8---8---8-|---5---5---------|---3---3---3---3-| 
D|-----------------|-----------6---6-|-----------------| 
A|---9---9---9---9-|---6---6-4---4---|---4---4---4---4-| 
E|-7---7---7---7---|-4---4-----------|-2---2---2---2---| 

e|-----------------|-----------------|-----------------|------------| 
B|-----------------|-----------5---5-|-----------------|------------| 
G|---8---8---8---8-|---5---5---------|---3---3---3---3-|-2-3-4-5--4-| 
D|-----------------|-----------6---6-|-----------------|------------| 
A|---9---9---9---9-|---6---6-4---4---|---4---4---4---4-|------------| 
E|-7---7---7---7---|-4---4-----------|-2---2---2---2---|-2-3-4-5--4-| 


  Verse 
e|-------------------|-------------------|-----------------|-----------------| 
B|-------------------|-------------------|-----------------|-----------------| 
G|-------------------|-----------------6-|---5---4---4---2-|---2---1---1---1-| 
D|-----2---2---2---2-|-----2---2---2-----|-----------------|-----------------| x4 
A|-2h4-----2---------|-2h4-----2-------7-|---7---6---5---4-|---3---2---2---2-| 
E|-0-----0---0---0---|-0-----0---0---0---|-0---0---0---0---|-0---0---0---0---| 


  Chorus 
e|-----------------|-----------------|-----------------| 
B|-----------------|-----------5---5-|-----------------| 
G|---8---8---8---8-|---5---5---------|---3---3---3---3-| 
D|-----------------|-----------6---6-|-----------------| 
A|---9---9---9---9-|---6---6-4---4---|---4---4---4---4-| 
E|-7---7---7---7---|-4---4-----------|-2---2---2---2---| 

e|-----------------|-----------------|-----------------|------------| 
B|-----------------|-----------5---5-|-----------------|------------| 
G|---8---8---8---8-|---5---5---------|---3---3---3---3-|-2-3-4-5--4-| 
D|-----------------|-----------6---6-|-----------------|------------| 
A|---9---9---9---9-|---6---6-4---4---|---4---4---4---4-|------------| 
E|-7---7---7---7---|-4---4-----------|-2---2---2---2---|-2-3-4-5--4-| 


  Verse 
e|-------------------|-------------------|-----------------|-----------------| 
B|-------------------|-------------------|-----------------|-----------------| 
G|-------------------|-----------------6-|---5---4---4---2-|---2---1---1---1-| 
D|-----2---2---2---2-|-----2---2---2-----|-----------------|-----------------| x2 
A|-2h4-----2---------|-2h4-----2-------7-|---7---6---5---4-|---3---2---2---2-| 
E|-0-----0---0---0---|-0-----0---0---0---|-0---0---0---0---|-0---0---0---0---| 


  Chorus 
e|-----------------|-----------------|-----------------| 
B|-----------------|-----------5---5-|-----------------| 
G|---8---8---8---8-|---5---5---------|---3---3---3---3-| 
D|-----------------|-----------6---6-|-----------------| x2 
A|---9---9---9---9-|---6---6-4---4---|---4---4---4---4-| 
E|-7---7---7---7---|-4---4-----------|-2---2---2---2---| 

e|-----------------|-----------------|-----------------|------------| 
B|-----------------|-----------5---5-|-----------------|------------| 
G|---8---8---8---8-|---5---5---------|---3---3---3---3-|-2-3-4-5--4-| 
D|-----------------|-----------6---6-|-----------------|------------| 
A|---9---9---9---9-|---6---6-4---4---|---4---4---4---4-|------------| 
E|-7---7---7---7---|-4---4-----------|-2---2---2---2---|-2-3-4-5--4-| 

  Verse 
e|-------------------|-------------------|-----------------|-----------------| 
B|-------------------|-------------------|-----------------|-----------------| 
G|-------------------|-----------------6-|---5---4---4---2-|---2---1---1---1-| 
D|-----2---2---2---2-|-----2---2---2-----|-----------------|-----------------| 
A|-2h4-----2---------|-2h4-----2-------7-|---7---6---5---4-|---3---2---2---2-| 
E|-0-----0---0---0---|-0-----0---0---0---|-0---0---0---0---|-0---0---0---0---| 

e|-------------------|-------------------|-----------------|---------------0-| 
B|-------------------|-------------------|-----------------|---------------0-| 
G|-------------------|-----------------6-|---5---4---4---2-|---2---1---1---1-| 
D|-----2---2---2---2-|-----2---2---2-----|-----------------|---------------2-| 
A|-2h4-----2---------|-2h4-----2-------7-|---7---6---5---4-|---3---2---2---2-| 
E|-0-----0---0---0---|-0-----0---0---0---|-0---0---0---0---|-0---0---0---0-0-| 

************************************ 

| /   slide up 
| \   slide down 
| h   hammer-on 
| p   pull-off 
| ~   vibrato 
| +   harmonic 
| x   Mute note 
| b   Bend 
| pb  Pre-bend 
| br  Bend release 
| pbr Pre-bend release 
| brb Bend release bend 

************************************ 
		  

auto scroll beats size up size down change color hide chords drawings
tab show chords e-chords YouTube Clip e-chords hide all tabs e-chords go to top tab

share