Louis Armstrong

home > Louis Armstrong

Darling Nelly Gray Tab

Louis Armstrong

Difficulty: nolevelnolevel

by renejunior

tuner correct add songbook print version text version save to e-mail
chordsukulelecavacokeyboardtabbassdrumsharmonicsflute Guitar Pro
chords

Darling Nelly Gray

  		verse 1 

e|---------------------------------------------------| 
B|-----------1-------------1-3-4-3-1-------1---------| 
G|---0-1-3-3---3-0-----1-3-----------3-3-3---3-0-----| 
D|-----------------3-1---------------------------1-0-| 
A|---------------------------------------------------| 
E|---------------------------------------------------| 

e|-----------------------------------------------------| 
B|---------------------------1-3-4-3-1-----------------| 
G|---0-1-3-3-3-3-3-0-----1-3-----------3-0-3-3-1-------| 
D|-3-----------------3-1-------------------------3-0-1-| 
A|-----------------------------------------------------| 
E|-----------------------------------------------------| 

Chorus 

e|---------------------------------------------------| 
B|-----------------------------------------1---------| 
G|-----0-1-1-1-1-3-1-1-0-0-0-0-0-1-3-3-3-3---3-0-----| 
D|---3-------------------------------------------1-3-| 
A|---------------------------------------------------| 
E|---------------------------------------------------| 

e|---------------------------------------------------| 
B|-----------1-------------1-3-4-3-1-----------------| 
G|-0-1-3-3-3---3-0-----1-3-----------3-0-3-3-1-------| 
D|-----------------3-1-------------------------3-0-1-| 
A|---------------------------------------------------| 
E|---------------------------------------------------| 

verse 2 

e|---------------------------------------------------| 
B|-------------1-------------1-3-4-3-1-----1---------| 
G|---0-1-3-3-3---3-0-----1-3-----------3-3---3-0-----| 
D|-------------------3-1-------------------------1-0-| 
A|---------------------------------------------------| 
E|---------------------------------------------------| 

e|-----------------------------------------------------| 
B|---------------------------1-3-4-3-1-----------------| 
G|---0-1-3-3-3-3-3-0-----1-3-----------3-0-3-3-1-------| 
D|-3-----------------3-1-------------------------3-0-1-| 
A|-----------------------------------------------------| 
E|-----------------------------------------------------| 

Chorus 

e|---------------------------------------------------| 
B|-----------------------------------------1---------| 
G|-----0-1-1-1-1-3-1-1-0-0-0-0-0-1-3-3-3-3---3-0-----| 
D|---3-------------------------------------------1-3-| 
A|---------------------------------------------------| 
E|---------------------------------------------------| 

e|---------------------------------------------------| 
B|-----------1-------------1-3-4-3-1-----------------| 
G|-0-1-3-3-3---3-0-----1-3-----------3-0-3-3-1-------| 
D|-----------------3-1-------------------------3-0-1-| 
A|---------------------------------------------------| 
E|---------------------------------------------------| 

verse 3 

e|---------------------------------------------------| 
B|-------------1-------------1-3-4-3-1-----1---------| 
G|---0-1-3-3-3---3-0-----1-3-----------3-3---3-0-----| 
D|-------------------3-1-------------------------1-0-| 
A|---------------------------------------------------| 
E|---------------------------------------------------| 

e|-----------------------------------------------------| 
B|---------------------------1-3-4-3-1-----------------| 
G|---0-1-3-3-3-3-3-0-----1-3-----------3-0-3-3-1-------| 
D|-3-----------------3-1-------------------------3-0-1-| 
A|-----------------------------------------------------| 
E|-----------------------------------------------------| 

Chorus 

e|---------------------------------------------------| 
B|-----------------------------------------1---------| 
G|-----0-1-1-1-1-3-1-1-0-0-0-0-0-1-3-3-3-3---3-0-----| 
D|---3-------------------------------------------1-3-| 
A|---------------------------------------------------| 
E|---------------------------------------------------| 

e|---------------------------------------------------| 
B|-----------1-------------1-3-4-3-1-----------------| 
G|-0-1-3-3-3---3-0-----1-3-----------3-0-3-3-1-------| 
D|-----------------3-1-------------------------3-0-1-| 
A|---------------------------------------------------| 
E|---------------------------------------------------| 

verse 4 

e|---------------------------------------------------| 
B|-------------1-------------1-3-4-3-1-----1---------| 
G|---0-1-3-3-3---3-0-----1-3-----------3-3---3-0-----| 
D|-------------------3-1-------------------------1-0-| 
A|---------------------------------------------------| 
E|---------------------------------------------------| 

e|---------------------------------------------------| 
B|-----------------------1-3-4-3-1-------------------| 
G|---0-3-3-3-3-0-----1-3-----------3-0-3-3-1---------| 
D|-3-------------3-1-------------------------3-0-1---| 
A|---------------------------------------------------| 
E|---------------------------------------------------| 

Chorus 

e|---------------------------------------------------| 
B|-----------------------------------------1---------| 
G|-----0-1-1-1-1-3-1-1-0-0-0-0-0-1-3-3-3-3---3-0-----| 
D|---3-------------------------------------------1-3-| 
A|---------------------------------------------------| 
E|---------------------------------------------------| 

e|---------------------------------------------------| 
B|-----------1-------------1-3-4-3-1-----------------| 
G|-0-1-3-3-3---3-0-----1-3-----------3-0-3-3-1-------| 
D|-----------------3-1-------------------------3-0-1-| 
A|---------------------------------------------------| 
E|---------------------------------------------------| 

Verse 5 

e|---------------------------------------------------| 
B|-------------1-------------1-3-4-3-1-------1-------| 
G|---0-1-3-3-3---3-0-----1-3-----------3-3-3---3-0---| 
D|-------------------3-1---------------------------1-| 
A|---------------------------------------------------| 
E|---------------------------------------------------| 

e|-------------------------------------------------------| 
B|-----------------------------1-3-4-3-1-----------------| 
G|-----0-1-3-3-3-3-3-0-----1-3-----------3-0-3-3-1-------| 
D|-0-3-----------------3-1-------------------------3-0-1-| 
A|-------------------------------------------------------| 
E|-------------------------------------------------------| 

Chorus 

e|---------------------------------------------------| 
B|-------------------------------------------1-------| 
G|-----0-1-1-1-1-1-3-1-1-0-0-0-0-0-1-3-3-3-3---3-0---| 
D|---3---------------------------------------------1-| 
A|---------------------------------------------------| 
E|---------------------------------------------------| 

e|-----------------------------------------------------| 
B|-------------1-------------1-3-4-3-1-----------------| 
G|---0-1-3-3-3---3-0-----1-3-----------3-0-3-3-1-------| 
D|-3-----------------3-1-------------------------3-0-1-| 
A|-----------------------------------------------------| 
E|-----------------------------------------------------| 
	  

Search Paypal
auto scroll beats size up size down change color hide chords drawings
tab show chords e-chords YouTube Clip e-chords hide all tabs e-chords go to top tab