Lou Rhodes

Baby

Lou Rhodes

tabs

by  TAMAMOREIRA

save to print version add songbook text version e-mail correct tuner
chordsukulelecavacokeyboardtabbassdrumsharmonicaflute Guitar Pro
close

there isn't a video lesson for this song

chords

Baby

Key:  D More
Baby Key AA
Baby Key A#A#
Baby Key BB
Baby Key CC(one step down)
Baby Key C#C#(half step down)
Baby Key DD(original key)
Baby Key D#D#(half step up)
Baby Key EE(one step up)
Baby Key FF
Baby Key F#F#
Baby Key GG
Baby Key G#G#
	  		


Tuning: D A D G A E 
 
Capo on the 4th fret. 

Tab with respect to the capo (0 means the 4th fret). 


intro 
verse 
Chorus 

intro 
verse 
Chorus 

bridge 

verse 
Chorus(*) 

ending 



Intro: 
|---------------------------------------------------------------------------| 
|-------0-----0-----0-----0-----0-----0-----0-----0-------------------------| 
|-----0-----0-----0-----0-----0-----0-----0-----0---------------------------| 
|---------4-----0-----0-----------0-----------------------------------------| 
|---------------------------4-----------4-----0-----------------------------| 
|---0-----------------------------------------------------------------------| 

|---------------------------------------------------------------------------| 
|-------0------0-----0-----0-----0-----0------------------------------------| 
|-----0------0-----0-----0-----0-----0--------------------------------------| 
|---------4-----0-----0-----------0-----------------------------------------| 
|---------------------------4-----------0-----------------------------------| 
|---0-----------------------------------------------------------------------| 


Verse: 
|---------------------------------------------------------------------------| 
|-------0-----0-----0-----0-----0-----0-----0-----0-------------------------| 
|-----0-----0-----0-----0-----0-----0-----0-----0---------------------------| 
|---------4-----0-----0-----------0-----------------------------------------| 
|---------------------------4-----------4-----0-----------------------------| 
|---0-----------------------------------------------------------------------| 

|---------------------------------------------------------------------------| 
|-------0------0-----0-----0-----0-----0-----0-----0------------------------| 
|-----0------0-----0-----0-----0-----0-----0-----0--------------------------| 
|---------4-----0-----0-----------0------------0----------------------------| 
|---------------------------4-----------0-----------------------------------| 
|---0-----------------------------------------------------------------------| 

|---------------------------------------------------------------------------| 
|-------0-----0-----0-----0-----0-----0-----0-----0-------------------------| 
|-----0-----0-----0-----0-----0-----0-----0-----0---------------------------| 
|---------4-----0-----0-----------0-----------------------------------------| 
|---------------------------4-----------4-----0-----------------------------| 
|---0-----------------------------------------------------------------------| 

|---------------------------------------------------------------------------| 
|-------0------0-----0-----0-----0-----0------------------------------------| 
|-----0------0-----0-----0-----0-----0--------------------------------------| 
|---------4-----0-----0-----------0-----------------------------------------| 
|---------------------------4-----------------------------------------------| 
|---0-----------------------------------------------------------------------| 


Chorus: 
|-------------------------------------------------------------------------| 
|---------0------0-----0-----0-----0-----0-----0------0-----0------0------| 
|-------0------0-----0-----0-----0-----0-----0------0-----0------0--------| 
|------------0-----------0-----------0------------0------------0----------| 
|-------------------------------------------------------------------------| 
|-----5------------3-----------3-----------2------------2-----------------| 


Bridge: 
|---------------------------------------------------------------------------| 
|------0-----0-----0-----0-----0-----0-----0-----0--------------------------| 
|----0-----0-----0-----0-----0-----0-----0-----0----------------------------| 
|--------4-----0-----0-----------0-----------0------------------------------| 
|--------------------------4-----------4------------------------------------| 
|--0------------------------------------------------------------------------| 

|-----------------------------------------------------| 
|------0-----0-----0-----0-----0-----0-----0-----0----| 
|----0-----0-----0-----0-----0-----0-----0-----0------| 
|--------2-----------2-----------0-----------0--------| 
|--3-----------3-----------2-----------2--------------| 
|-----------------------------------------------------| 

|-----------------------------------------------------| 
|------0-----0-----0-----0-----0-----0-----0-----0----| 
|----0-----0-----0-----0-----0-----0-----0-----0------| 
|--------2-----------2-----------0-----------0--------| 
|--3-----------3-----------2-----------2--------------| 
|-----------------------------------------------------| 

|-----------------------------------------------------| 
|------0-----0-----0-----0-----0-----0-----0-----0----| 
|----0-----0-----0-----0-----0-----0-----0-----0------| 
|--------2-----------2-----------0-----------0--------| 
|--3-----------3-----------2-----------2--------------| 
|-----------------------------------------------------| 

|-----------------------------------------------------| 
|------0-----0-----0-----0-----0-----0-----0-----0----| 
|----0-----0-----0-----0-----0-----0-----0-----0------| 
|--------2-----------2-----------0-----------0--------| 
|--3-----------3-----------2-----------2--------------| 
|-----------------------------------------------------| 

|---------------------------------------------------------------------------| 
|-------0-----0-----0-----0-----0-----0-----0-----0-------------------------| 
|-----0-----0-----0-----0-----0-----0-----0-----0---------------------------| 
|---------4-----0-----0-----------0-----------0-----------------------------| 
|---------------------------4-----------4-----------------------------------| 
|---0-----------------------------------------------------------------------| 

|---------------------------------------------------------------------------| 
|-------0------0-----0-----0-----0-----0------------------------------------| 
|-----0------0-----0-----0-----0-----0--------------------------------------| 
|---------4-----0-----0-----------0-----------------------------------------| 
|---------------------------4-----------0-----------------------------------| 
|---0-----------------------------------------------------------------------| 


Chorus(*) 
|-------------------------------------------------------------------------| 
|---------0------0-----0-----0-----0-----0-----0------0-----0------0------| 
|-------0------0-----0-----0-----0-----0-----0------0-----0------0--------| 
|------------0-----------0-----------0------------0------------0----------| 
|-------------------------------------------------------------------------| 
|-----5------------3-----------3-----------2------------2-----------------| 

|--------------------------------------------------------------------| 
|------------------0-----0-----0-----0-----0------0------0------0----| 
|----------------0-----0-----0-----0-----0------0------0-----0-------|  
|--------------------0-----------0------------0------------0---------| 
|--------------------------------------------------------------------| 
|--------------3-----------3-----------2------------2----------------|          

|--------------------------------------------------------------------| 
|------------------0-----0-----0-----0-----0------0------0------0----| 
|----------------0-----0-----0-----0-----0------0------0-----0-------|  
|--------------------0-----------0------------0------------0---------| 
|--------------------------------------------------------------------| 
|--------------3-----------3-----------2------------2----------------|      


ending: 
|---------------------------------------------------------------------------| 
|-------0-----0-----0-----0-----0-----0-----0-----0-------------------------| 
|-----0-----0-----0-----0-----0-----0-----0-----0---------------------------| 
|---------4-----0-----0-----------0-----------0-----------------------------| 
|---------------------------4-----------4-----------------------------------| 
|---0-----------------------------------------------------------------------| 

|---------------------------------------------------------------------------| 
|-------0-----0-----0-----0-----0-----0-----0-----0-------------------------| 
|-----0-----0-----0-----0-----0-----0-----0-----0---------------------------| 
|---4-----4-----0-----0-----------0-----------0-----------------------------| 
|---------------------------4-----------4-----------------------------------| 
|---0-----------------------------------------------------------------------| 

|---------------------------------------------------------------------------| 
|-------0-----0-----0-----0-----0-----0-----0-----0-------------------------| 
|-----0-----0-----0-----0-----0-----0-----0-----0---------------------------| 
|---4-----4-----0-----0-----------0-----------0-----------------------------| 
|---------------------------4-----------4-----------------------------------| 
|---0-----------------------------------------------------------------------| 

|---------------------------------------------------------------------------| 
|-------0------0-----0-----0-----0-----0-----0-----0-----0------------------| 
|-----0------0-----0-----0-----0-----0-----0-----0-----0--------------------| 
|---4-----4-----0-----0-----------0------------0----------------------------| 
|---------------------------4------------4-----------4----------------------| 
|---------------------------------------------------------------------------| 



These days I don't have a clue 
About this thing called love 
And all the things it puts us through 
And I used to hold it like heaven above 

But I love it when you call me "baby" 

We've been hanging out a while now 
Trying so hard not to say 
Three little words that weigh so heavily 
And could really blow our cold away 

But I love it when you call me "baby" 

We've both been there before 
All broken hearted and sore 
And you can never ever be sure 
But there's something about this 
Makes me want more 

These days I don't have a clue 
About this thing called love 
And all the things it puts us through 
And I used to hold it like heaven above 

But I love it when you call me 
I love it when you call me 
I love it when you call me "baby" 
Baby, baby, baby, baby 
Baby, baby, baby, baby 
Baby, baby, baby, baby 
		  

Full key step upFull key step up
Half key step upHalf key step up
Half key step downHalf key step down
Full key step downFull key step down
hide glossary

See also:

tabs Ira! - Dias de Luta (Intro - Acustico Mtv) tabs Deep Purple - Deep Purple - Smoke On The Water tabs Deep Purple - Demon's Eye tabs Ira! - Inundação de Amor tabs Deep Purple - Smoke on the Water (solo) tabs Deep Purple - Black Knight
e-chords

Other versions:

tabs Serj Tankian - Baby tabs Justin Bieber - Baby tabs Lou Rhodes - Baby tabs Royal Republic - Baby tabs Justin Bieber - Baby (Acoustic) tabs Red Hot Chili Peppers - Baby Appeal
auto scroll beats size up size down change color hide chords drawings
tab show chords e-chords YouTube Clip e-chords hide all tabs e-chords go to top tab

share