Lost Acapulco

Por Un Tubo

Lost Acapulco

tabs

by  TERCMORAES

save to print version add songbook text version e-mail correct tuner
chordsukulelecavacokeyboardtabbassdrumsharmonicaflute Guitar Pro
close

there isn't a video lesson for this song

chords

Por Un Tubo

(Lost acapulco)

	  		Una vez mas , pitufando surf mexicano de calidad? 

Riff 1 Intro 
e--------------------------------- 
b--------------------------------- 
g--------------------------------- 
d--------------------------------- 
a---------2--------2-------------- 
E---0-0-3---0-0-3---0-0---etc.---- 

Riff 2 
e----------------------------------------------------------------------------------------------- 
b----------------------------------------------------------------------------------------------- 
g----------------------------------------------------------------------------------------------- 
d----------------------------------------------------------------------------------------------- 
a-0-0--3-3--2-2--5-5--0-0--3-3--2-2--5-5--0-0--3-3--2-2--5-5--0-0--3-3--2-2-0-0- 
E----------------------------------------------------------------------------------------------- 
Y regresa al riff 1 

Riff 3 
     F                 E                       A#               A 
e-------------------------------------------------------------------------------------12/5- 
b-------------------------------------------------------------------------------------12/5- 
g-----------------------------------------------7-7-7-7-7-7-7---6-6-6-6-6-6-6-------------- 
d-----------------------------------------------8-8-8-8-8-8-8---7-7-7-7-7-7-7-------------- 
a-8-8-8-12-8-12-11----7-6-7-6-------------------8-8-8-8-8-8-8---7-7-7-7-7-7-7-------------- 
e-----------------------------------------------6-6-6-6-6-6-6---5-5-5-5-5-5-5-------------- 
Con tremolo 

Riff 4 
e------------------------------------------------------------------- 
b----------------------------------10---6---5----------------------- 
g-9---5---4---9---5---4h5h4-------------------9---5---4h5h4--------- 
d------------------------------------------------------------------- 
a------------------------------------------------------------------- 
E------------------------------------------------------------------ 


e---0-0--0-0--0-0-0-0-0-0------------------- 
b---0-0--0-0--0-0-0-0-0-0------------------- 
g---1-1--1-1--1-1-1-1-1-1------------------- 
d---2-2--2-2--2-2-2-2-2-2------------------- 
a---2-2--2-2--2-2-2-2-2-2------------------- 
E------------------------------------------- 
De este acorde no estoy muy seguro. 

La rola termina con el riff 3, unicamente cambia el ultimo tono por D. 

Un saludito a Iliana y Luis Manuel de Jalapa? 
Y recuerden : ?al que pitufa, dios lo ayuda' 

Una vez mas... bien rifado.
		  

Full key step upFull key step up
Half key step upHalf key step up
Half key step downHalf key step down
Full key step downFull key step down
hide glossary

See also:

tabs Lost Acapulco - Hollywood Baby tabs Lost Acapulco - Tangatutanga tabs Los Traseros Empapados - No Me Haras Sufrir tabs Brujeria - Ritmos Satanicos tabs Lost Acapulco - Mpm La Quebradora tabs Lost Acapulco - Incidente En Calle Dakota
e-chords

Other versions:

tabs Lost Acapulco - Por Un Tubo
auto scroll beats size up size down change color hide chords drawings
tab show chords e-chords YouTube Clip e-chords hide all tabs e-chords go to top tab

share