Lost Acapulco

Las Brisas

Lost Acapulco

tabs

by  TERCMORAES

save to print version add songbook text version e-mail correct tuner
chordsukulelecavacokeyboardtabbassdrumsharmonicaflute Guitar Pro
close

there isn't a video lesson for this song

chords

Las Brisas

	  		    intro 
------------|----------------------------------|------------- 
------------|----------------------------------|-----8-10-8-- 
-12-11-10-9-|---------------15v*---------------|---9--------- 
-12-11-10-9-|-----11/14/16------16-14-16-16-12-|------------- 
-10--9--8-7-|----------------------------------|------------- 
------------|----------------------------------|------------- 

------------------------------------------------m 
------------------------------------------------- 
-9---7--9--7----9---7--9--5----7---5--7--5--9---- 
-9*--7--9? 7*---9*--7--9?-5*---7*--5--7--5?-9*--- 
-7---5--7--5----7---5--7--3----5---3--5--3--7---- 
-------------------------------------------------
		  

See also:

tabs Lost Acapulco - Hollywood Baby tabs Lost Acapulco - Tangatutanga tabs Los Traseros Empapados - No Me Haras Sufrir tabs Brujeria - Ritmos Satanicos tabs Lost Acapulco - Mpm La Quebradora tabs Lost Acapulco - Incidente En Calle Dakota
e-chords

Other versions:

tabs Lost Acapulco - Las Brisas
auto scroll beats size up size down change color hide chords drawings
tab show chords e-chords YouTube Clip e-chords hide all tabs e-chords go to top tab

share