Los Lonely Boys

Dime Mi Amor (solo)

Los Lonely Boys

tabs Beginner beginner

save to print version add songbook text version e-mail correct tuner
chordsukulelecavacokeyboardtabbassdrumsharmonicaflute Guitar Pro
close

there isn't a video lesson for this song

chords

Dime Mi Amor (solo)

	  		As recorded by Los Lonely Boys 
(From the self-titled album Los Lonely Boys) 
 
Ear transcribed by Vhhendrixcrazy 
 
1st Solo: (1:35) 
|--------------------------------------------0--0----0-0---0-0------| 
|--------------------------------------------0--0--2s5-5-5s7-7------| 
|-2b4r(2)-0---2-0---------------------------------------------------| 
|-----------------2-2---0--------------2----------------------------| 
|-------------------------2-1-0h1p0---------------------------------| 
|-----------------------------------3-------------------------------| 
 
|---0-0----0--0-----0--0-----0--0-----0--0-----0--0-----0----0----0-| 
|-7s8-8-8s10-10-10s12-12-12s15-15-15s17-17-17s19-19-19s20---19---17-| 
|-------------------------------------------------------------------| 
|-------------------------------------------------------------------| 
|-------------------------------------------------------------------| 
|-------------------------------------------------------------------| 
 
|--0--0---0--0--0--0--0--0--0--0---0--0--------12-12-------12-12----| 
|-19-17--15-15-17-15-12-12-15-12--15-12--------12-12-------12-12----| 
|----------------------------------------14b16-------14b16----------| 
|-------------------------------------------------------------------| 
|-------------------------------------------------------------------| 
|-------------------------------------------------------------------| 
 
|-------12-12-------12-12-------12-12-12----------------------------| 
|-------12-12-------12-12-------12-12-12--------------------12------| 
|-14b16-------14b16-------14b16----------14pb16r(14)p12-14----------| 
|-------------------------------------------------------------------| 
|-------------------------------------------------------------------| 
|-------------------------------------------------------------------| 
					    ~~ 
|-------------------------------------------------------------------| 
|-------------------------------------------------------------------| 
|-14p12-14p12--11-12--11h12p11-------------12-----------------------| 
|------------------------------14-12-14-14-----14-12----------------| 
|-------------------------------------------------------------------| 
|-------------------------------------------------------------------| 
 
|--------------12---------12-14--12h14p12----12--15b17-15--14-15----| 
|-----------12----15b15.5-----------------15------------------------| 
|-14b==16-----------------------------------------------------------| 
|-------------------------------------------------------------------| 
|-------------------------------------------------------------------| 
|-------------------------------------------------------------------| 
 
|-14---15p14p12----12-----------------------------------------------| 
|---------------15----15b17--15-12----------------------------------| 
|-----------------------------------14-12-----------------12-14-----| 
|-----------------------------------------14-12-14--14-14-----------| 
|-------------------------------------------------------------------| 
|-------------------------------------------------------------------| 
 
						~~ 
|-------------------------------------------------------------------| 
|-------------------------------------------------------------------| 
|-14b16-14--12------------------------12-12-------------------------| 
|--------------14-12------14-14-14-14-------14-14--14-14-14-14-14---| 
|-----------------------x-------------------------------------------|     
|---------------------x---------------------------------------------|     
					  ~~~~                            
|-------------------------------------------------------------------|     
|-------------------------------------------------------------------|     
|-------------------------11-11-12-12-12-14----12-14p12-------------|  
|-14-14-13-13-13-14-14-14-------------------------------------------| 
|-------------------------------------------------------------------| 
|-------------------------------------------------------------------| 
 
|-------12-12-------12-12-------12-12-------12-12-------12-12-12-12-| 
|-------12-12-------12-12-------12-12-------12-12-------12-12-12-12-| 
|-14b16-------14b16-------14b16-------14b16-------14b16-------------| 
|-------------------------------------------------------------------| 
|-------------------------------------------------------------------| 
|-------------------------------------------------------------------|  
(End of 1st solo)
		  

See also:

tabs Red Hot Chili Peppers - Under the Bridge tabs Eye of the tiger - Eye of the tiger tabs Los Lonely Boys - Heaven tabs Red Hot Chili Peppers - Snow (hey oh) tabs Jeff Buckley - Hallelujah tabs Red Hot Chili Peppers - Venice Queen
e-chords

Other versions:

tabs Los Lonely Boys - Dime Mi Amor (solo)
auto scroll beats size up size down change color hide chords drawings
tab show chords e-chords YouTube Clip e-chords hide all tabs e-chords go to top tab

share