Los Angeles Negros

Y Volvere

Los Angeles Negros

tabs Beginner beginner

by  SAGARENA

save to print version add songbook text version e-mail correct tuner
chordsukulelecavacokeyboardtabbassdrumsharmonicaflute Guitar Pro
close

there isn't a video lesson for this song

chords

Y Volvere

	  		E /-7-10-7---|------7-10-9-7-9-|---7-9-7--------|-----6-9-7-5-7-|- 
B /--------8-|-8-10------------|-10------10-5-7-|-7-9-----------|- 
G /----------|-----------------|----------------|---------------|- 
D /----------|-----------------|----------------|---------------|- 
A /----------|-----------------|----------------|---------------|- 
E /----------|-----------------|----------------|---------------|- 



E /-3-5-7-5-3-----|-----3-6-5-3-5-|-1-2-1---------2-|- 
B /-----------3-5-|-5-6-----------|-------4-2-1---3-|- 
G /---------------|---------------|---------------4-|- 
D /---------------|---------------|---------------4-|- 
A /---------------|---------------|---------------2-|- 
E /---------------|---------------|---------------2-|- 

Esta parte se repite 2 veces 

   Bm     Em 
  Amor adios, 
A7                  D 
  no se puede continuar 
Bm                  Em 
  ya la magia termino 
A7                     D 
  ahora tengo que marchar 


    Bm    Em 
  Sera mejor 
A7                    D 
  seguir nuestra soledad 
Bm                       Em 
  si hoy el cielo se cubrio 
A7                         D 
  quizas mañana brille el sol 


coro: 

D7           G 
  No sufras mas 
 A                       D 
  Quisas mañana nuestro llanto que atras 
Bm                       Em 
  Y si me dices que tu amor me esperara 
A7                         D 
  Tendre la luz que mi sendero alumbrara 

D7        G 
  Y volvere 
 A                   D 
  como un ave que retorna a su nidal 
Bm                       Em 
  Veras que pronto volvere y me quedare 
A7                  D 
  por esa paz que siempre siempre tu me das 
       A7 
  que tu me das 



     Bm  Em 
  Y volvere, 
A7               D 
  a tus brazos caere 
Bm                     Em 
  las estrellas brillaran 
A7                  D 
  y nuestro amor renacera 



Se repite el coro. 

		  

Full key step upFull key step up
Half key step upHalf key step up
Half key step downHalf key step down
Full key step downFull key step down
hide glossary

See also:

tabs Chancho en Piedra - Volantin tabs Alegría - Por Qué No Contestas tabs Alejandro Silva - Metal Himno tabs Alejandro Silva - Lagarto tabs Alegría - Mujer Y Cervecita tabs Chancho en Piedra - Eligiendo una reina
e-chords

Other versions:

tabs Los Bunkers - Y volvere tabs Los Angeles Negros - Y Volvere
auto scroll beats size up size down change color hide chords drawings
tab show chords e-chords YouTube Clip e-chords hide all tabs e-chords go to top tab

share