Lonlonjp

Main Theme Ocarina Of Time

Lonlonjp

tabs

by  TERR_SCHMITZ

save to print version add songbook text version e-mail correct tuner
chordsukulelecavacokeyboardtabbassdrumsharmonicaflute Guitar Pro
close

there isn't a video lesson for this song

chords

Main Theme Ocarina Of Time

	  		


Tuning:DADGBe 

 
  


   D6   Amaj7 D6          Amaj7                D6            Amaj7 
e|---------------------------------------------/7-----6p5p4-----------2p0-----| 
B|--2----2--------------2----------0-2-----0-2--------------------------------| 
G|--4----1------------4----------1--------------------------------------------| 
D|--4----2--------0-4--------0h2--------------------0-4-----------0-2---------| 
A|--0----0------0----------0----------------------0-------------0-------------| 
D|--0---------0---------------------------------0------------0----------------| 


        D6              Amaj7              D6           Amaj7 
e|------/7-----6p5p4--5-4-----------------/7-----6p5p4-----------2p0---------| 
B|--0-2-------------------------0-2---0-2------------------------------------| 
G|----------------------------1--------------------------------1-------------| 
D|-----------0-4----------0-2------------------0-4-----------2---------------| 
A|---------0------------0--------------------0-------------0-----------------| 
D|-------0---------------------------------0------------0--------------------| 


        D6               Amaj7 
e|------/7-----6p5p4--9--4---------------------------------------------------| 
B|--0-2--------------------------0-2-----------------------------------------| 
G|-----------------------------1---------------------------------------------| 
D|-----------0-4-----------0-2-----------------------------------------------| 
A|---------0-------------0---------------------------------------------------| 
D|-------0-------------------------------------------------------------------| 
  

  Dmaj7     E      Dmaj7    E      Dmaj7    E      Fmsj7    G  
e|--2-----------0---2-------4---0---2-----------0---5------------0-----------| 
B|--2---2---0---0---2---2---0---0---2---2---0---0---5---5---3----------------| 
G|--2-------1-------2---------------2-------1-------5---5---4----0-----------| 
D|------0-------2-------0-------2-------0-------2-------3---5--5-------------| 
A|----0-------2-------0-------2-------0-------2-------3----------------------| 
D|--0-------2-------0-------2-------0-------2-------3-------5----------------| 


   D6           Amaj7          D6          Amaj7 
e|---------------------------------------------------------------------------| 
B|------------2----------0-2-------------2---------0-5--2--------------------| 
G|----------4----------1---------------4---------1---6-----------------------| 
D|------0-4--------0h2-------------0-4-------0h2-----------------------------| 
A|----0----------0---------------0---------0---------------------------------| 
D|--0--------------------------0---------------------------------------------| 


    D6           Amaj7              D6              Amaj7 
e|--/7-----6p5p4-----------2p0------/7-----6p5p4--5--4-------0---------------| 
B|------------------------------0h2--------------------------2---------------| 
G|---------------------------------------------------------1-----------------| 
D|-------0-4-----------0h2---------------0---------------2-------------------| 
A|-----0-------------0-----------------0-------------0-0---------------------| 
D|---0------------0------------------0---------------------------------------| 


        D6             Amaj7            D6               Amaj7 
e|------/7-----6p5p4----------2p0------/7-----6p5p4---9\-4--------0----------| 
B|--0h2-----------------------2----0h2----------------------------2----------| 
G|--------------------------1-----------------------------------1------------| 
D|-----------0-4----------2-----------------0-4---------------2--------------| 
A|---------0------------0-----------------0--------------0--0----------------| 
D|-------0-----------0------------------0------------------------------------| 


  Dmaj7     E      Dmaj7    E      Dmaj7    E      Fmsj7    G  
e|--2-----------0---2-------4---0---2-----------0---5------------0-----------| 
B|--2---2---0---0---2---2---0---0---2---2---0---0---5---5---3----------------| 
G|--2-------1-------2---------------2-------1-------5---5---4----0-----------| 
D|------0-------2-------0-------2-------0-------2-------3---5--5-------------| 
A|----0-------2-------0-------2-------0-------2-------3----------------------| 
D|--0-------2-------0-------2-------0-------2-------3-------5----------------| 


   D6            Amaj7         D6          Amaj7 
e|---------------------------------------------------------------------------| 
B|------------2----------0-2-------------2--2--------------------------------| 
G|----------4----------1---------------4----1--------------------------------| 
D|------0-4--------0h2-------------0-4------2--------------------------------| 
A|----0----------0---------------0----------0--------------------------------| 
D|--0--------------------------0---------------------------------------------| 



        



************************************ 

| /   slide up 
| \   slide down 
| h   hammer-on 
| p   pull-off 
| ~   vibrato 
| +   harmonic 
| x   Mute note 
| b   Bend 
| pb  Pre-bend 
| br  Bend release 
| pbr Pre-bend release 
| brb Bend release bend 

************************************ 
		  

Full key step upFull key step up
Half key step upHalf key step up
Half key step downHalf key step down
Full key step downFull key step down
hide glossary

See also:

tabs Deep Purple - Smoke On The Water tabs Ira! - Núcleo Base ( Acústico MTV) tabs Deep Purple - When a Blind man cries tabs Deep Purple - Time To Kill tabs Ira! - O Girassol (intro) tabs Deep Purple - Smoke On The Water (solo Ver.2)
e-chords

Other versions:

tabs Lonlonjp - Main Theme Ocarina Of Time
auto scroll beats size up size down change color hide chords drawings
tab show chords e-chords YouTube Clip e-chords hide all tabs e-chords go to top tab

share