Local Natives

Who Knows Who Cares (acoustic)

Local Natives

tabs nolevel nolevel

by  BRUNBLAZKOWSKI

save to print version add songbook text version e-mail correct tuner
chordsukulelecavacokeyboardtabbassdrumsharmonicaflute Guitar Pro
close

there isn't a video lesson for this song

chords

Who Knows Who Cares (acoustic)

	  		 

*Rhythm guitar(Intro,Verse and Chorus): 
e|---------------------------------------------------------------------------| 
B|---------------------------------------------------------------------------| 
G|---------------------------------------------------------------------------| 
D|---------------------------------------------------------------------------| 
A|--1-1-1-1-1-1-1-1-5-5-5-5-5-5-5-5-6-6-6-6-5-5-5-5-6-6-6-6-6-6-6-6----------| 
E|-1-1-1-1-1-1-1-1-5-5-5-5-5-5-5-5-8-8-8-8-6-6-6-6-8-8-8-8-5-5-5-5-----------| 

e|---------------------------------------------------------------------------| 
B|---------------------------------------------------------------------------| 
G|---------------------------------------------------------------------------| 
D|---------------------------------------------------------------------------| 
A|--1-1-1-1-1-1-1-1-5-5-5-5-5-5-5-5-6-6-6-6-5-5-5-5-6-6-6-6-6-6-6-6----------| 
E|-1-1-1-1-1-1-1-1-5-5-5-5-5-5-5-5-8-8-8-8-6-6-6-6-8-8-8-8-5-5-5-5-----------| 
   "I've been.."   "Listen..."    "knooooows...." 

e|---------------------------------------------------------------------------| 
B|---------------------------------------------------------------------------| 
G|---------------------------------------------------------------------------| 
D|---------------------------------------------------------------------------| 
A|--1-1-1-1-1-1-1-1-5-5-5-5-5-5-5-5-6-6-6-6-5-5-5-5-6-6-6-6-6-6-6-6----------| 
E|-1-1-1-1-1-1-1-1-5-5-5-5-5-5-5-5-8-8-8-8-6-6-6-6-8-8-8-8-5-5-5-5-----------| 
   "You figure.." "Water's..."    "change...." 

Enter drums 
e|---------------------------------------------------------------------------| 
B|---------------------------------------------------------------------------| 
G|---------------------------------------------------------------------------| 
D|---------------------------------------------------------------------------| 
A|--1-1-1-1-1-1-1-1-5-5-5-5-5-5-5-5-6-6-6-6-5-5-5-5-6-6-6-6-6-6-6-6----------| 
E|-1-1-1-1-1-1-1-1-5-5-5-5-5-5-5-5-8-8-8-8-6-6-6-6-8-8-8-8-5-5-5-5-----------| 
   "Who knows..."                  "Who cares..." 

He plays this arrangement for the rest of the song. 

                                   ~~~~~~~~~~~~ 

*Lead Guitar: This part starts at the second "Who knows..." 
e|---------------------------------------------------------------------------| 
B|--8----8------7--7--7--10-10-10--7--7--7-----------------------------------| 
G|---10---10----8--8--8---8--8--8--8--8--8-----------------------------------| 
D|-----12---12--10-10-10--8--8--8--10-10-10----------------------------------| 
A|---------------------------------------------------------------------------| 
E|---------------------------------------------------------------------------|  
		  

See also:

tabs Audioslave - Gasoline tabs Red Hot Chili Peppers - Can't Stop tabs Red Hot Chili Peppers - Scar Tissue (ver. 3) tabs Audioslave - Seven Nation Army tabs Boyce Avenue - Titanium tabs Red Hot Chili Peppers - Parallel Universe
e-chords

Other versions:

tabs Local Natives - Who Knows Who Cares (acoustic)
auto scroll beats size up size down change color hide chords drawings
tab show chords e-chords YouTube Clip e-chords hide all tabs e-chords go to top tab

share with facebook