Linkin Park

In The End Version 5 Tab

Linkin Park

Difficulty: BeginnerBeginner

by AcDc25

tuner correct add songbook print version text version save to e-mail
chordsukulelecavacokeyboardtabbassdrumsharmonicsflute Guitar Pro
close

there isn't a video lesson for this song

request
chords

In The End Version 5

  		e----------------------------------------------------- 
b----------------------------------------------------- 
g----3--3--------------------------------------------- x 4 
d-1--------4--3--3--3--3--4--1------------------------ 
a----------------------------------------------------- 
e----------------------------------------------------- 

nota despues de la cuarta ves q lo hagas se hace asi 

e---------------------------------------------------- 
b---------------------------------------------------- 
g----3--3---------------------------------------------- 
d-1--------4--3----------------------------------------- 
a---------------------------------------------------- 
e---------------------------------------------------- 
	  

Search Paypal
auto scroll beats size up size down change color hide chords drawings
tab show chords e-chords YouTube Clip e-chords hide all tabs e-chords go to top tab

share with facebook