Linkin Park

home > Linkin Park

In The End (intro) Tab

Linkin Park

Difficulty: BeginnerBeginner

by sv089

tuner correct add songbook print version text version save to e-mail
chordsukulelecavacokeyboardtabbassdrumsharmonicsflute Guitar Pro
chords

In The End (intro)

  		(INTRO) 
E|:-------------------------| 
B|:-------------------------| 
G|:-----4-4-----------------| 
D|:--2-------5-4-4-4-4-5-4--| 
A|:-------------------------| 
E|:-------------------------| 
  
(FINAL) 
E|:--------0--2-3-2~--------| 
B|:------0------------------| 
G|:----0--------------------| 
D|:--2----------------------| 
A|:-------------------------| 
E|:-------------------------| 

	  

Search Paypal
auto scroll beats size up size down change color hide chords drawings
tab show chords e-chords YouTube Clip e-chords hide all tabs e-chords go to top tab