Linkin Park

A place for my head(ver.3) Tab

Linkin Park

Difficulty: nolevelnolevel

by mulook

tuner correct add songbook print version text version save to e-mail
chordsukulelecavacokeyboardtabbassdrumsharmonicsflute Guitar Pro
close

there isn't a video lesson for this song

request
chords

A place for my head(ver.3)

  		e/-------------------------------------------------| 
B/-------------------------------------------------| 
G/-------------------------------------------------| 
D/------8-8-8-8--9--8--6---------------------------| 
A/-6-6-------------------9-9--7-7-7-7-7---9--------| 
E/-------------------------------------------------| 
intro (8x) 
intro (6x) com distorção e com uma pausa entre as casas: 
corda D casa 6 pausa entre ela e na corda A  casa 9  
 
Refrão: 
G/------10--11--10---8---6--6----4--4--4---6---    
D/-8-8--8---9---8----6---4--4----2--2--2---4--- 
A/-6-6----------------------------------------- 
 
Refrão com distorção 
 
tem uma hora na musika q faz assim: 
G/-10--------------------4| 
D/-10--------------------4| 
A/-8---------------------2| 
com distorção 
 
lá no final faz assim: 
G/---------------------------------8--| 
D/-4-4--4-4-4-4--4-4-4-4--4-4-4-4--8--| 
A/-4-4--4-4-4-4--4-4-4-4--4-4-4-4--6--| 
E/-2-2--2-2-2-2--2-2-2-2--2-2-2-2-----| 
 
naum tah errado pq eu tirei do DVD Live in Texas a não 
ser q a afinação seja diferente. 

	  

Search Paypal
auto scroll beats size up size down change color hide chords drawings
tab show chords e-chords YouTube Clip e-chords hide all tabs e-chords go to top tab

share with facebook