Linkin Park

home > Linkin Park

A Place For My Head Tab

Linkin Park

Difficulty: BeginnerBeginner

tuner correct add songbook print version text version save to e-mail
chordsukulelecavacokeyboardtabbassdrummharmonicsflute Guitar Pro
chords

A Place For My Head

Year: 2000 - Album: Hybrid Theory

  		Intro: 6x esse solinho e as 4 primeiras abafadas.

e | |---------------------------------------------------------------
B| |---------------------------------------------------------------
G| |---------------------------------------------------------------
D| |-----------7/8-8-9-8-6-4-4-1/2-2-2-2-4-----------------
A| |-----6-6--------------------------------------66-------------
E| |---------------------------------------------------------------

Durante os versos que os caras cantam, tocar o mesmo solinho sem abafar 
nada,
mas com uma pausa entre o 6 e 4 na corda D.

Refrão: Toque 4x essa sequência de  notas

e| |------------------------------------------------------------------------------------------------------
B| |-------------------------------------------------------------------------------------------------------
G| |-------------------------------------------------------------------------------------------------------
D| |---8-8------15------16------15------13------11-11-11------9-9-9-9--------11--------8-8---
A| |---6-6------13------14------13------11-------9---9--9-------7-7-7-7---------9--------6-6----
E| |-------------------------------------------------------------------------------------------------------

Mais ou menos a 1:19 de música,
quando o back vocal começar a dizer ahhhhhhhhhhhhhh e tal, toque as 
seguintes notas 2x, e depois vai pro refrão.

e | |----------------------------------------------------------------------------------------------------------
B| |-----------------------------------------------------------------------------------------------------------
G| |------8---------------------------------------------------------------------------------------------------
D| |------8------------4--------------------------------------------------------------------------------------
A| |------6------------4--------------------------------------------------------------------------------------
E| |--------------------2--------------------------------------------------------------------------------------

Depois tem as mesmas coisas de antes daí se tu ouvir o som tu vai saber.
	  

Search Paypal
auto scroll beats size up size down change color hide chords drawings
tab show chords e-chords YouTube Clip e-chords hide all tabs e-chords go to top tab