Linkin Park

home > Linkin Park

A Line In The Sand Tab

Linkin Park

Difficulty: nolevelnolevel

by abelamin

tuner correct add songbook print version text version save to e-mail
chordsukulelecavacokeyboardtabbassdrumsharmonicsflute Guitar Pro
chords

A Line In The Sand

  		


Intro 
Guitar 1: 
E||-------------------------------------------------------| 
B||-------------------------------------------------------| 
G||-------7------7--------7--------7----------------------| 
D||-------x------x--------x--------x-----5h7---3h5---2h3--| 
A||--0000-5---00-5---0000-5---0000-5--00-5h7-0-3h5-0-2h3--| 
D||--0000-----00-----0000-----0000----00-5h7-0-3h5-0-2h3--| 
     ....     ..     ....     ....    ..     .     . 


Guitar 1/2: 
E||-------------------------------------------------------| 
B||-------------------------------------------------------| 
G||-------7------77-------7--------7----------------------| 
D||-------x------xx-------x--------x-----5h7---3h5---2h3--| 
A||--0000-5---00-55--0000-5---0000-5--00-5h7-0-3h5-0-2h3--| 
D||--0000-----00-----0000-----0000----00-5h7-0-3h5-0-2h3--| 
     ....     ..     ....     ....    ..     .     . 



Pre-Verse 
Guitar 1: 
E||---------------------------------------------------------------| 
B||---------------------------------------------------------------| 
G||-------7------7------7-10-9-7-5-5-5-5-5-5-5-5-9-9-9-9-9-9-9-9--| 
D||-------x------x------x-x--x-x-x-x-x-x-x-x-x-x-x-x-x-x-x-x-x-x--| 
A||--0000-5---00-5---00-5-8--7-5-3-3-3-3-3-3-3-3-7-7-7-7-7-7-7-7--| 
D||--0000-----00-----00-------------------------------------------| 
     ....     ..     .. 

E||-------------------------------------------------------------------------------| 
B||-------------------------------------------------------------------------------| 
G||-------7------7------7-10-9-7-10-10-10-10-10-10-10-10-14-14-14-14-14-14-14-14--| 
D||-------x------x------x-x--x-x-x--x--x--x--x--x--x--x--x--x--x--x--x--x--x--x---| 
A||--0000-5---00-5---00-5-8--7-5-8--8--8--8--8--8--8--8--12-12-12-12-12-12-12-12--| 
D||--0000-----00-----00-----------------------------------------------------------| 
     ....     ..     .. 

E||---------------------------------------------------------------| 
B||---------------------------------------------------------------| 
G||-------7------7------7-10-9-7-5-5-5-5-5-5-5-5-9-9-9-9-9-9-9-9--| 
D||-------x------x------x-x--x-x-x-x-x-x-x-x-x-x-x-x-x-x-x-x-x-x--| 
A||--0000-5---00-5---00-5-8--7-5-3-3-3-3-3-3-3-3-7-7-7-7-7-7-7-7--| 
D||--0000-----00-----00-------------------------------------------| 
     ....     ..     .. 

E||-----------------------------------------------------------------------| 
B||-----------------------------------------------------------------------| 
G||-------7------7------7-10-9-7-10-10-10-10-10-10-10-10-9-9-9-9-9-9-9-9--| 
D||-------x------x------x-x--x-x-x--x--x--x--x--x--x--x--x-x-x-x-x-x-x-x--| 
A||--0000-5---00-5---00-5-8--7-5-8--8--8--8--8--8--8--8--7-7-7-7-7-7-7-7--| 
D||--0000-----00-----00---------------------------------------------------| 
     ....     ..     .. 


Guitar 2: 
E||-------------------------------------------|--------------------------------------------| 
B||-------------------------------------------|--------------------------------------------| 
G||-------------------------------------------|--------------------------------------------| 
D||-------0------0----------7777777777777777--|-------8------8~--888888-33333333/77777777--| x2 
A||--0000-0---00-0---000000-7777777777777777--|--8888-8---88-8~--888888-33333333/77777777--| 
D||--0000-0---00-0---000000-7777777777777777--|--8888-8---88-8~--888888-33333333/77777777--| 
     ....     ..     ......                      ....     .. 



Guitar 1: 
E||-------------------------------------------------------| 
B||-------------------------------------------------------| 
G||-------7------7--------7--------7----------------------| 
D||-------x------x--------x--------x-----5h7---3h5---2h3--| 
A||--0000-5---00-5---0000-5---0000-5--00-5h7-0-3h5-0-2h3--| 
D||--0000-----00-----0000-----0000----00-5h7-0-3h5-0-2h3--| 
     ....     ..     ....     ....    ..     .     . 


Guitar 2: 
E||-------------------------------------------------------| 
B||-------------------------------------------------------| 
G||-------------------------------------------------------| 
D||-------0------0--------0--------0-----5h7---3h5---2h3--| 
A||--0000-0---00-0---0000-0---0000-0--00-5h7-0-3h5-0-2h3--| 
D||--0000-0---00-0---0000-0---0000-0--00-5h7-0-3h5-0-2h3--| 
     ....     ..     ....     ....    ..     .     . 


Guitar 1/2: 
E||------| 
B||------| 
G||------| 
D||--0~--| 
A||--0~--| 
D||--0~--| 



Verse / Pre-Chorus 
Guitar 1: 
(Natral Harmonics towards end) 
E||-------------------------------------------------| 
B||-------------------------------------------------| 
G||-------------------------------------------------| 
D||--12-12-12-12-12~---12-12-12~---12-12-12-12-12~--| x15 
A||-------------------------------------------------| 
D||-------------------------------------------------| 
     .  .  .  .        .  .        .  .  .  . 

E||---------| 
B||---------| 
G||---------| 
D||--*'12~--| 
A||---------| 
D||---------| 



Chorus 
Guitar 1: 
E||-------------------------------------------------------------------| 
B||-------------------------------------------------------------------| 
G||--7~--7-7-7-7-7-7-7~--7-7-7-7-7-7-9~--9-9-9-9-9-9-9~--9-9-9-9-9-9--| 
D||--x---x-x-x-x-x-x-x---x-x-x-x-x-x-x---x-x-x-x-x-x-x---x-x-x-x-x-x--| 
A||--5~--5-5-5-5-5-5-5~--5-5-5-5-5-5-7~--7-7-7-7-7-7-7~--7-7-7-7-7-7--| 
D||-------------------------------------------------------------------| 


E||----------------------------------------------------------------------------------------| 
B||----------------------------------------------------------------------------------------| 
G||--10~--10-10-10-10-10-10-10~--10-10-10-10-10-10-10~--10-10-10-10-10-10-9~--9-9-9-9-9-9--| 
D||--x----x--x--x--x--x--x--x----x--x--x--x--x--x--x----x--x--x--x--x--x--x---x-x-x-x-x-x--| 
A||--8~---8--8--8--8--8--8--8~---8--8--8--8--8--8--8~---8--8--8--8--8--8--7~--7-7-7-7-7-7--| 
D||----------------------------------------------------------------------------------------| 


E||-------------------------------------------------------------------| 
B||-------------------------------------------------------------------| 
G||--7~--7-7-7-7-7-7-7~--7-7-7-7-7-7-9~--9-9-9-9-9-9-9~--9-9-9-9-9-9--| 
D||--x---x-x-x-x-x-x-x---x-x-x-x-x-x-x---x-x-x-x-x-x-x---x-x-x-x-x-x--| 
A||--5~--5-5-5-5-5-5-5~--5-5-5-5-5-5-7~--7-7-7-7-7-7-7~--7-7-7-7-7-7--| 
D||-------------------------------------------------------------------| 


E||----------------------------------------------------------------------------------------| 
B||----------------------------------------------------------------------------------------| 
G||--10~--10-10-10-10-10-10-10~--10-10-10-10-10-10-10~--10-10-10-10-10-10-9-9-9-9-9-9-9-9--| 
D||--x----x--x--x--x--x--x--x----x--x--x--x--x--x--x----x--x--x--x--x--x--x-x-x-x-x-x-x-x--| 
A||--8~---8--8--8--8--8--8--8~---8--8--8--8--8--8--8~---8--8--8--8--8--8--7-7-7-7-7-7-7-7--| 
D||----------------------------------------------------------------------------------------| 



Guitar 2: 
E||-------------------------------------------------------------------| 
B||-------------------------------------------------------------------| 
G||-------------------------------------------------------------------| 
D||--0~--0-0-0-0-0-0-0~--0-0-0-0-0-0-7~--7-7-7-7-7-7-7~--7-7-7-7-7-7--| 
A||--0~--0-0-0-0-0-0-0~--0-0-0-0-0-0-7~--7-7-7-7-7-7-7~--7-7-7-7-7-7--| 
D||--0~--0-0-0-0-0-0-0~--0-0-0-0-0-0-7~--7-7-7-7-7-7-7~--7-7-7-7-7-7--| 


E||-------------------------------------------------------------------| 
B||-------------------------------------------------------------------| 
G||-------------------------------------------------------------------| 
D||--8~--8-8-8-8-8-8-8~--8-8-8-8-8-8-3~--3-3-3-3-3-3-7~--7-7-7-7-7-7--| 
A||--8~--8-8-8-8-8-8-8~--8-8-8-8-8-8-3~--3-3-3-3-3-3-7~--7-7-7-7-7-7--| 
D||--8~--8-8-8-8-8-8-8~--8-8-8-8-8-8-3~--3-3-3-3-3-3-7~--7-7-7-7-7-7--| 


E||-------------------------------------------------------------------| 
B||-------------------------------------------------------------------| 
G||-------------------------------------------------------------------| 
D||--0~--0-0-0-0-0-0-0~--0-0-0-0-0-0-7~--7-7-7-7-7-7-7~--7-7-7-7-7-7--| 
A||--0~--0-0-0-0-0-0-0~--0-0-0-0-0-0-7~--7-7-7-7-7-7-7~--7-7-7-7-7-7--| 
D||--0~--0-0-0-0-0-0-0~--0-0-0-0-0-0-7~--7-7-7-7-7-7-7~--7-7-7-7-7-7--| 


E||-------------------------------------------------------------------| 
B||-------------------------------------------------------------------| 
G||-------------------------------------------------------------------| 
D||--8~--8-8-8-8-8-8-8~--8-8-8-8-8-8-3~--3-3-3-3-3-3-7-7-7-7-7-7-7-7--| 
A||--8~--8-8-8-8-8-8-8~--8-8-8-8-8-8-3~--3-3-3-3-3-3-7-7-7-7-7-7-7-7--| 
D||--8~--8-8-8-8-8-8-8~--8-8-8-8-8-8-3~--3-3-3-3-3-3-7-7-7-7-7-7-7-7--| 



Pre-Verse 
Guitar 1: 
E||---------------------------------------------------------------| 
B||---------------------------------------------------------------| 
G||-------7------7------7-10-9-7-5-5-5-5-5-5-5-5-9-9-9-9-9-9-9-9--| 
D||-------x------x------x-x--x-x-x-x-x-x-x-x-x-x-x-x-x-x-x-x-x-x--| 
A||--0000-5---00-5---00-5-8--7-5-3-3-3-3-3-3-3-3-7-7-7-7-7-7-7-7--| 
D||--0000-----00-----00-------------------------------------------| 
     ....     ..     .. 

E||-------------------------------------------------------------------------------| 
B||-------------------------------------------------------------------------------| 
G||-------7------7------7-10-9-7-10-10-10-10-10-10-10-10-14-14-14-14-14-14-14-14--| 
D||-------x------x------x-x--x-x-x--x--x--x--x--x--x--x--x--x--x--x--x--x--x--x---| 
A||--0000-5---00-5---00-5-8--7-5-8--8--8--8--8--8--8--8--12-12-12-12-12-12-12-12--| 
D||--0000-----00-----00-----------------------------------------------------------| 
     ....     ..     .. 


Guitar 2: 
E||-------------------------------------------|--------------------------------------------| 
B||-------------------------------------------|--------------------------------------------| 
G||-------------------------------------------|--------------------------------------------| 
D||-------0------0----------7777777777777777--|-------8------8~--888888-33333333/77777777--| 
A||--0000-0---00-0---000000-7777777777777777--|--8888-8---88-8~--888888-33333333/77777777--| 
D||--0000-0---00-0---000000-7777777777777777--|--8888-8---88-8~--888888-33333333/77777777--| 
     ....     ..     ......                      ....     .. 


Guitar 1/2: 
E||---------------------| 
B||---------------------| 
G||---------------------| 
D||--5h7---3h5---2h3-0--| 
A||--5h7-0-3h5-0-2h3-0--| 
D||--5h7-0-3h5-0-2h3-0--| 
         .     . 


Verse 
Guitar 1: 
E||-----|----------| 
B||-----|----------| 
G||-----|----------| 
D||--0--|-------0--| 
A||--0--|--0000-0--| 
D||--0--|--0000-0--| 
           .... 


Chorus 
Guitar 1: 
E||-------------------------------------------------------------------| 
B||-------------------------------------------------------------------| 
G||--7~--7-7-7-7-7-7-7~--7-7-7-7-7-7-9~--9-9-9-9-9-9-9~--9-9-9-9-9-9--| 
D||--x---x-x-x-x-x-x-x---x-x-x-x-x-x-x---x-x-x-x-x-x-x---x-x-x-x-x-x--| 
A||--5~--5-5-5-5-5-5-5~--5-5-5-5-5-5-7~--7-7-7-7-7-7-7~--7-7-7-7-7-7--| 
D||-------------------------------------------------------------------| 


E||----------------------------------------------------------------------------------------| 
B||----------------------------------------------------------------------------------------| 
G||--10~--10-10-10-10-10-10-10~--10-10-10-10-10-10-10~--10-10-10-10-10-10-9~--9-9-9-9-9-9--| 
D||--x----x--x--x--x--x--x--x----x--x--x--x--x--x--x----x--x--x--x--x--x--x---x-x-x-x-x-x--| x2 
A||--8~---8--8--8--8--8--8--8~---8--8--8--8--8--8--8~---8--8--8--8--8--8--7~--7-7-7-7-7-7--| 
D||----------------------------------------------------------------------------------------| 


Guitar 2: 
E||-------------------------------------------------------------------| 
B||-------------------------------------------------------------------| 
G||-------------------------------------------------------------------| 
D||--0~--0-0-0-0-0-0-0~--0-0-0-0-0-0-7~--7-7-7-7-7-7-7~--7-7-7-7-7-7--| 
A||--0~--0-0-0-0-0-0-0~--0-0-0-0-0-0-7~--7-7-7-7-7-7-7~--7-7-7-7-7-7--| 
D||--0~--0-0-0-0-0-0-0~--0-0-0-0-0-0-7~--7-7-7-7-7-7-7~--7-7-7-7-7-7--| 


E||-------------------------------------------------------------------| 
B||-------------------------------------------------------------------| 
G||-------------------------------------------------------------------| 
D||--8~--8-8-8-8-8-8-8~--8-8-8-8-8-8-3~--3-3-3-3-3-3-7~--7-7-7-7-7-7--| 
A||--8~--8-8-8-8-8-8-8~--8-8-8-8-8-8-3~--3-3-3-3-3-3-7~--7-7-7-7-7-7--| 
D||--8~--8-8-8-8-8-8-8~--8-8-8-8-8-8-3~--3-3-3-3-3-3-7~--7-7-7-7-7-7--| 


E||-------------------------------------------------------------------| 
B||-------------------------------------------------------------------| 
G||-------------------------------------------------------------------| 
D||--0~--0-0-0-0-0-0-0~--0-0-0-0-0-0-7~--7-7-7-7-7-7-7~--7-7-7-7-7-7--| 
A||--0~--0-0-0-0-0-0-0~--0-0-0-0-0-0-7~--7-7-7-7-7-7-7~--7-7-7-7-7-7--| 
D||--0~--0-0-0-0-0-0-0~--0-0-0-0-0-0-7~--7-7-7-7-7-7-7~--7-7-7-7-7-7--| 


E||-------------------------------------------------------------------| 
B||-------------------------------------------------------------------| 
G||-------------------------------------------------------------------| 
D||--8~--8-8-8-8-8-8-8~--8-8-8-8-8-8-3~--3-3-3-3-3-3-7-7-7-7-7-7-7-7--| 
A||--8~--8-8-8-8-8-8-8~--8-8-8-8-8-8-3~--3-3-3-3-3-3-7-7-7-7-7-7-7-7--| 
D||--8~--8-8-8-8-8-8-8~--8-8-8-8-8-8-3~--3-3-3-3-3-3-7-7-7-7-7-7-7-7--| 



Pre-Verse 
Guitar 1: 
E||-------------------------------------------------------| 
B||-------------------------------------------------------| 
G||-------7------7--------7--------7----------------------| 
D||-------x------x--------x--------x-----5h7---3h5---2h3--| x2 
A||--0000-5---00-5---0000-5---0000-5--00-5h7-0-3h5-0-2h3--| 
D||--0000-----00-----0000-----0000----00-5h7-0-3h5-0-2h3--| 
     ....     ..     ....     ....    ..     .     . 


Guitar 2: 
E||-------------------------------------------------------| 
B||-------------------------------------------------------| 
G||-------------------------------------------------------| 
D||-------0------0--------0--------0-----5h7---3h5---2h3--| x2 
A||--0000-0---00-0---0000-0---0000-0--00-5h7-0-3h5-0-2h3--| 
D||--0000-0---00-0---0000-0---0000-0--00-5h7-0-3h5-0-2h3--| 
     ....     ..     ....     ....    ..     .     . 


Guitar 1/2: 
E||------| 
B||------| 
G||------| 
D||--0~--| 
A||--0~--| 
D||--0~--| 



Breakdown 
Guitar 1/2: 
E||------------------------------------------| 
B||------------------------------------------| 
G||--------------5----8--7--\----------------| 
D||--6----0----x-5--x-8--7--\-0----x-3--x-7--| x3 
A||--6----0----x-3--x-6--5--\-0----x-3--x-7--| 
D||--6----0----x----x---------0----x-3--x-7--| 


E||--------------------------------------------------------------| 
B||--------------------------------------------------------------| 
G||--------------5----8--7--\------------------------------------| 
D||--6----0----x-5--x-8--7--\-0----x-0--x-0--x-0--x-0--x-0--x-0--| 
A||--6----0----x-3--x-6--5--\-0----x-0--x-0--x-0--x-0--x-0--x-0--| 
D||--6----0----x----x---------0----x-0--x-0--x-0--x-0--x-0--x-0--| 


E||--------------------------|--------------------------|--------------------------| 
B||--------------------------|--------------------------|--------------------------| 
G||-------7------7--------7--|-------7------7--------7--|-------7------7--------7--| 
D||-------x------x--------x--|-------x------x--------x--|-------x------x--------x--| 
A||--0000-5---00-5---0000-5--|--0000-5---00-5---0000-5--|--0000-5---00-5---0000-5--| 
D||--0000-----00-----0000----|--0000-----00-----0000----|--0000-----00-----0000----| 
     ....     ..     ....       ....     ..     ....       ....     ..     .... 

E||-------------------------------| 
B||-------------------------------| 
G||-------7-----------------------| 
D||-------x------5h7---3h5---2h3--| 
A||--0000-5---00-5h7-0-3h5-0-2h3--| 
D||--0000-----00-5h7-0-3h5-0-2h3--| 
     ....     .. 



Chorus 
Guitar 1: 
E||-------------------------------------------------------------------| 
B||-------------------------------------------------------------------| 
G||--7~--7-7-7-7-7-7-7~--7-7-7-7-7-7-9~--9-9-9-9-9-9-9~--9-9-9-9-9-9--| 
D||--x---x-x-x-x-x-x-x---x-x-x-x-x-x-x---x-x-x-x-x-x-x---x-x-x-x-x-x--| 
A||--5~--5-5-5-5-5-5-5~--5-5-5-5-5-5-7~--7-7-7-7-7-7-7~--7-7-7-7-7-7--| 
D||-------------------------------------------------------------------| 


E||----------------------------------------------------------------------------------------| 
B||----------------------------------------------------------------------------------------| 
G||--10~--10-10-10-10-10-10-10~--10-10-10-10-10-10-10~--10-10-10-10-10-10-9~--9-9-9-9-9-9--| 
D||--x----x--x--x--x--x--x--x----x--x--x--x--x--x--x----x--x--x--x--x--x--x---x-x-x-x-x-x--| 
A||--8~---8--8--8--8--8--8--8~---8--8--8--8--8--8--8~---8--8--8--8--8--8--7~--7-7-7-7-7-7--| 
D||----------------------------------------------------------------------------------------| 


E||-------------------------------------------------------------------| 
B||-------------------------------------------------------------------| 
G||--7~--7-7-7-7-7-7-7~--7-7-7-7-7-7-9~--9-9-9-9-9-9-9~--9-9-9-9-9-9--| 
D||--x---x-x-x-x-x-x-x---x-x-x-x-x-x-x---x-x-x-x-x-x-x---x-x-x-x-x-x--| 
A||--5~--5-5-5-5-5-5-5~--5-5-5-5-5-5-7~--7-7-7-7-7-7-7~--7-7-7-7-7-7--| 
D||-------------------------------------------------------------------| 


E||----------------------------------------------------------------| 
B||----------------------------------------------------------------| 
G||--10~--10-10-10-10-10-10-10~--10-10-10-10-10-10-10~-------------| 
D||--x----x--x--x--x--x--x--x----x--x--x--x--x--x--x----7~----10~--| 
A||--8~---8--8--8--8--8--8--8~---8--8--8--8--8--8--8~--------------| 
D||----------------------------------------------------------------| 



Guitar 2: 
E||-------------------------------------------------------------------| 
B||-------------------------------------------------------------------| 
G||-------------------------------------------------------------------| 
D||--0~--0-0-0-0-0-0-0~--0-0-0-0-0-0-7~--7-7-7-7-7-7-7~--7-7-7-7-7-7--| 
A||--0~--0-0-0-0-0-0-0~--0-0-0-0-0-0-7~--7-7-7-7-7-7-7~--7-7-7-7-7-7--| 
D||--0~--0-0-0-0-0-0-0~--0-0-0-0-0-0-7~--7-7-7-7-7-7-7~--7-7-7-7-7-7--| 


E||-------------------------------------------------------------------| 
B||-------------------------------------------------------------------| 
G||-------------------------------------------------------------------| 
D||--8~--8-8-8-8-----8~--8-8-8-8-8-8-3-3-3-3-3-3-3-3-7-7-7-7-7-7-7-7--| x2 
A||--8~--8-8-8-8-8-8-8~--8-8-8-8-8-8-3-3-3-3-3-3-3-3-7-7-7-7-7-7-7-7--| 
D||--8~--8-8-8-8-8-8-8~--8-8-8-8-8-8-3-3-3-3-3-3-3-3-7-7-7-7-7-7-7-7--| 
                 . . 


Bridge 
Guitar 1: 
E||--------------------------------------------------------------------------| 
B||--------------------------------------------------------------------------| 
G||--7~-----10--9--7---------10--9--7-------10--9--7--------6-6-6-6-6-6-6-6--| 
D||------------------10~--------------8~--------------7~---------------------| 
A||--------------------------------------------------------------------------| 
D||--------------------------------------------------------------------------| 


(Tremlo Pick) 
E||----------------------------------------------| 
B||----------------------------------10----------| 
G||--7---10-7---7-9--7----------\6-----10-9-7----| 
D||---------------------10~------------------8~--| 
A||----------------------------------------------| 
D||----------------------------------------------| 

                    T      T      T      T      T      T      T      T 
E||--------------------------------------------------------------------------| 
B||--------------------------------------------------------------------------| 
G||--------------------------------------------------------------------------| 
D||--8-8--7---------10-3h7-10-3h7-10-3h7-10-3h7-11-5h7-11-5h7-11-5h7-11-5h7--| 
A||----------8--5------------------------------------------------------------| 
D||--------------------------------------------------------------------------| 


Guitar 2: 
E||-------------------------------------------|--------------------------------------------| 
B||-------------------------------------------|--------------------------------------------| 
G||-------------------------------------------|--------------------------------------------| 
D||-------0------0----------7777777777777777--|-------8------8~--888888-33333333/77777777--| x2 
A||--0000-0---00-0---000000-7777777777777777--|--8888-8---88-8~--888888-33333333/77777777--| 
D||--0000-0---00-0---000000-7777777777777777--|--8888-8---88-8~--888888-33333333/77777777--| 
     ....     ..     ......                      ....     .. 



Solo / Outro 
Guitar 1: 
    T   T T T  T T T  T T T  T T T  T T T  T T T  T T T  T T 
E||-----------------------------------------------------------| 
B||-----------------------------------------------------------| 
G||-----------------------------------------------------------| 
D||--12---7-12---7-12---7-12---7-12---7-12---7-12---7-12---7--| 
A||-----5------5------5------5------5------5------5------5----| 
D||-----------------------------------------------------------| 


    T   T T T  T T T  T T T  T T T  T T T  T T T  T T T  T T 
E||-----------------------------------------------------------| 
B||-----------------------------------------------------------| 
G||-----------------------------------------------------------| 
D||--14---7-14---7-14---7-14---7-14---7-14---7-14---7-14---7--| 
A||-----5------5------5------5------5------5------5------5----| 
D||-----------------------------------------------------------| 


    T   T T T  T T T  T T T  T T T  T T T  T T T  T T T  T T 
E||-----------------------------------------------------------| 
B||-----------------------------------------------------------| 
G||-----------------------------------------------------------| 
D||--12---8-12---8-12---8-12---8-12---8-12---8-12---8-12---8--| 
A||-----5------5------5------5------5------5------5------5----| 
D||-----------------------------------------------------------| 


     T      T      T      T      T      T      T      T 
E||-----------------------------------------------------------| 
B||-----------------------------------------------------------| 
G||-----------------------------------------------------------| 
D||--10-3h7-10-3h7-10-3h7-10-3h7-11-5h7-11-5h7-11-5h7-11-5h7--| (Repeat all) 
A||-----------------------------------------------------------| 
D||-----------------------------------------------------------| 


Guitar 2: 
E||-------------------------------------------|--------------------------------------------| 
B||-------------------------------------------|--------------------------------------------| 
G||-------------------------------------------|--------------------------------------------| 
D||-------0------0----------7777777777777777--|-------8------8~--888888-33333333/77777777--| x2 
A||--0000-0---00-0---000000-7777777777777777--|--8888-8---88-8~--888888-33333333/77777777--| 
D||--0000-0---00-0---000000-7777777777777777--|--8888-8---88-8~--888888-33333333/77777777--| 
     ....     ..     ......                      ....     .. 



Guitar 1: 
     T 
E||-------| 
B||-------| 
G||-------| 
D||--12~--| 
A||-------| 
D||-------| 


Guitar 2: 
E||------| 
B||------| 
G||------| 
D||--0~--| 
A||--0~--| 
D||--0~--| 




Tablature Legend 
---------------- 
 h   hammer-on 
 p   pull-off 
 b   bend 
 pb  pre-bend 
 r   release bend 
 ~   hold / vibrato 
 .   palm mute 
 /   slide up 
 \   slide down 
 *   pinch harmonic 
 '   natural harmonic 
 x   mute note 
 T   tap 
	  

Search Paypal
auto scroll beats size up size down change color hide chords drawings
tab show chords e-chords YouTube Clip e-chords hide all tabs e-chords go to top tab