Lindsey Buckingham

trouble

Lindsey Buckingham

tabs Beginner beginner

by  LAINEX13

save to print version add songbook text version e-mail correct tuner
chordsukulelecavacokeyboardtabbassdrumsharmonicaflute Guitar Pro
close

there isn't a video lesson for this song

chords

trouble

Key:  C More
trouble Key GG
trouble Key G#G#
trouble Key AA
trouble Key A#A#(one step down)
trouble Key BB(half step down)
trouble Key CC(original key)
trouble Key C#C#(half step up)
trouble Key DD(one step up)
trouble Key D#D#
trouble Key EE
trouble Key FF
trouble Key F#F#
	  		Diagrams for the slash chords appear below.  If the slash  
chords(like C/E) are too difficult to play, you can cheat  
by playing the bass notes (in parenthesis, tabbed below  
slash chords) on the A string over the root chord.   
 
Chords Used: 
The following chords are in simplest form. 
Am:   x02210 
C/E:  xx2010 
C/D:  xx0010 
C:    x32010 
F/A:  x0321x 
F/B:  x2321x 
F/C:  x3321x 
G/B:  x2003x 
G/C:  x3000x 
G/D:  xx0003 
G/E:  xx2433 
 
 
C 
I really should be saying goodnight 
 
Am 
I really shouldn't stay anymore 
 
C 
It's been so long since I felt this way 
 
Am 
I've forgotten what love is for 
 
 
C/E  C/D  C  Am         F/A  F/B  F/C   G/B  G/C  G/D  
Oh, I should run on the double 
 
e|---------------------------------------------------| 
B|---------------------------------------------------| 
G|---------------------------------------------------| 
D|---------------------------------------------------| 
A|-7-5-3-----------------0----2----3-----2----3----5-| 
E|---------------------------------------------------| 
    
 
Chorus: (Play 3 times) 
               Am     C                    G/E  G/D  G/B 
I think I'm in trouble                                                         
       e|-------17-15-12----------------------| 
       B|--------------13-13-13---------------| 
       G|----------------------12-------------| 
       D|-------------------------------------| 
       A|------------------------(7----5---2)-| 
       E|-------------------------------------| 
 
 
VERSE 2: 
C 
So come to me darlin', hold me tight, 
 
Am 
Let your honey keep you warm. 
 
C 
It's been so long since anyone touched me, 
 
Am 
I've forgotten what love is for. 
 
 
C/E  C/D  C  Am         F/A  F/B  F/C   G/B  G/C  G/D  
Oh, I should run on the double 
(a-7-5-3-----------------0----2----3-----2----3----5) 
 
 
Chorus: (Play 4 times) 
               Am     C                    G/E  G/D  G/B 
I think I'm in trouble                                                         
                    e-------17-15-12-------------------- 
                    b-13-13----------13-----------------  
                    g-------------------12-------------- 
                    d----------------------------------- 
                    a-----------------------(7----5---2) 
                    E----------------------------------- 
 
 
SOLO: (">" = hammer-on; "<" = pull-off; "\" = slide) 
e------------------------------------------------------- 
b--13-12-13-15-12-13-15-13-12----12-13-12----12-13-12--- 
g-----------------------------14----------14----------14 
d------------------------------------------------------- 
a------------------------------------------------------- 
E------------------------------------------------------- 
 
 
e------------------------------------ 
b---12>13<12----12>13<12----12------- 
g------------14----------14---------- 
d--------------------------------14-- 
a------------------------------------ 
E------------------------------------ 
 
 
e------------------------------------------------------ 
b--12-13-15-13-12-13-15-13----------------------------- 
g-----------------------------12-14-----9\7------------ 
d--------------------------14---------------10-9-7-9--- 
a----------------------------------------------------9- 
E------------------------------------------------------ 
 
C/E  C/D  C  Am         F/A  F/B  F/C   G/B  G/C  G/D  
Oh, I should run on the double 
(a-7-5-3-----------------0----2----3-----2----3----5) 
 
 
Chorus: (Play 4 times) 
               Am     C                    G/E  G/D  G/B 
I think I'm in trouble                                                         
                    e-------17-15-12-------------------- 
                    b-13-13----------13-----------------  
                    g-------------------12-------------- 
                    d----------------------------------- 
                    a-----------------------(7----5---2) 
                    E-----------------------------------
		  

Full key step upFull key step up
Half key step upHalf key step up
Half key step downHalf key step down
Full key step downFull key step down
hide glossary

See also:

tabs Aerosmith - Dream On tabs Bon Jovi - It's My Life tabs Van Halen - Pretty Woman tabs Mr. Big - To Be With You tabs Guns N' Roses - Don't Cry tabs Guns N' Roses - Sweet Child o' mine
e-chords

Other versions:

tabs Cypress Hill - Trouble tabs Lindsey Buckingham - trouble tabs Coldplay - Trouble (intro) tabs Pink - Trouble (solo) tabs Coldplay - Trouble complete tabs Incubus - Trouble In 421
auto scroll beats size up size down change color hide chords drawings
tab show chords e-chords YouTube Clip e-chords hide all tabs e-chords go to top tab

share