Lightnin Hopkins

Blues In The Bottle

Lightnin Hopkins

tabs

by  TERR_SCHMITZ

save to print version add songbook text version e-mail correct tuner
chordsukulelecavacokeyboardtabbassdrumsharmonicaflute Guitar Pro
close

there isn't a video lesson for this song

chords

Blues In The Bottle

	  		

Intro -  


   E 
e|--------------------0---------0--------------------------------------------| 
B|--------------------0---------0--------------------------------------------| 
G|--------------------1---------1--------------------------------------------| 
D|----0--0--2----------------------------------------------------------------| 
A|-2-------------------------------------------------------------------------| 
E|------------0----0-----0----0----------------------------------------------| 


Chorus - He plays variations of this throughout the song (8 times), all very similar. I've tabbed  
the most complex section so you can just simplify if/when you sing. The timing for the base notes is  
constant, you just have to get the feel and it'll come naturally. 


   E 
e|----0--0--0-----------0-----0--0--0-----------0-------------0--------------| 
B|-------------3--0-----0--------------3--0-----0-----3--3---------3----0----| 
G|----------------------1-----------------------1----------------------------| 
D|---------------------------------------------------------------------------| 
A|---------------------------------------------------------------------------| 
E|-0-----0-----0-----0-----0-----0-----0-----0-----0-----0----0----0----0----| 


   E 
e|---------------------------------------------------------------------------| 
B|---------------------------------------------------------------------------| 
G|-2--2--0-------------------------------------------------------------------| 
D|----------2----------------------------------------------------------------| 
A|---------------------------------------------------------------------------| 
E|-0-----0-----0--0----------------------------------------------------------| 
                  ^play this on the off beat, possibly with finger to help keep the rhythm solid 

   A 
e|---------------------------------------------------------------------------| 
B|---------------------------------------------------------------------------| 
G|----2--2--2--0--------------2--2----0--------------------------------------| 
D|----------------2--0---------------------2---------------------------------| 
A|-0-----0-----0-----0-----0-----0----0----0---------------------------------| 
E|----------------------0----------------------------------------------------| 


   E                                             B                       A 
e|---------0----------------------------------------0------------------------| 
B|-0-------------0--3--3----0--3--0-----0-----3--3-----3--0------------------| 
G|-----------------------------------2-----------------------2-2-0-2-0-------| 
D|---------------------------------------------------------------------2-2---| 
A|-----------------------------------------------2-----2-----2-----2-----0---| 
E|-0----0-----0-----0----0-----0-----0-----0---------------------------------| 


                          E     B#7  B7 
e|---------------------------0--3----2------0--------------------------------| 
B|---0--3--3--0--------------0--5----4------0--------------------------------| 
G|---------------2--2-0------1--3----2---------------------------------------| 
D|----------------------2-------5----4---------------------------------------| 
A|------0-----0-----0-----------3----2---------------------------------------| 
E|------------------------0--------------------------------------------------| 
		  

Full key step upFull key step up
Half key step upHalf key step up
Half key step downHalf key step down
Full key step downFull key step down
hide glossary

See also:

tabs Ira! - Vitrine Viva tabs Deep Purple - Black Knight tabs Deep Purple - Demonds Eye tabs Deep Purple - Smoke on the Water (ver. 2) tabs Deep Purple - Clearly Quite Absurd tabs Ira! - Envelheço na Cidade (intro)
e-chords

Other versions:

tabs Lightnin Hopkins - Blues In The Bottle
auto scroll beats size up size down change color hide chords drawings
tab show chords e-chords YouTube Clip e-chords hide all tabs e-chords go to top tab

share