Liam Finn

Burn Up The Road

Liam Finn

tabs

by  GUSTSILVA

save to print version add songbook text version e-mail correct tuner
chordsukulelecavacokeyboardtabbassdrumsharmonicaflute Guitar Pro
close

there isn't a video lesson for this song

chords

Burn Up The Road

	  		
Intro: 
e|----12--------11--------12-------11----------------------------------------| 
B|----12--------12--------12-------12b(13)-----------------------------------| 
G|---------------------------------------------------------------------------| 
D|---------------------------------------------------------------------------| 
A|---------------------------------------------------------------------------| 
E|---------------------------------------------------------------------------| 


Main riff: 
e|---------------------------------------------------------------------------| 
B|-----------------------/9----9----9----7----4----4----7----4----7----4-----| 
G|----1----1----4----1-------------------------------------------------------| 
D|---------------------------------------------------------------------------| 
A|---------------------------------------------------------------------------| 
E|---------------------------------------------------------------------------| 

e|---------------------------------------------------------------------------| 
B|----1/4----4----7----4----7----4----1/4----4----7----4----7----0-----------| 
G|---------------------------------------------------------------------------| 
D|---------------------------------------------------------------------------| 
A|---------------------------------------------------------------------------| 
E|---------------------------------------------------------------------------| 

e|---------------------------------------------------------------------------| 
B|-----------------------/9----9----9----7----4----4----7----4----7----4-----| 
G|----1----1----4----1-------------------------------------------------------| 
D|---------------------------------------------------------------------------| 
A|---------------------------------------------------------------------------| 
E|---------------------------------------------------------------------------| 

e|---------------------------------------------------------------------------| 
B|----4----4----7----4----7----4--------0---------4----1----4----------------| 
G|-------------------------------------------6-------------------------------| 
D|---------------------------------------------------------------------------| 
A|---------------------------------------------------------------------------| 
E|---------------------------------------------------------------------------| 


Chords: 
e|-------------6---------10--------------------------------------------------| 
B|----6--------7---------11--------6-----------------------------------------| 
G|----7--------8---------12--------7-----------------------------------------| 
D|----8--------8---------12--------8-----------------------------------------| 
A|----8--------6---------10--------8-----------------------------------------| 
E|----6----------------------------6-----------------------------------------| 

e|-------------6----8-----10-------------------------------------------------| 
B|----6--------7----9-----11--------6----------------------------------------| 
G|----7--------8----10----12--------7----------------------------------------| 
D|----8--------8----10----12--------8----------------------------------------| 
A|----8--------6----8-----10--------8----------------------------------------| 
E|----6-----------------------------6----------------------------------------| 


************************************ 

| /   slide up 
| \   slide down 
| h   hammer-on 
| p   pull-off 
| ~   vibrato 
| +   harmonic 
| x   Mute note 
| b   Bend 
| pb  Pre-bend 
| br  Bend release 
| pbr Pre-bend release 
| brb Bend release bend 

************************************ 
		  

See also:

tabs Kate Miller-heidke - Hello tabs Iggy Azalea - Fancy tabs The Jungle Giants - Devils In The Detail tabs Lakyn Heperi - Kids tabs San Cisco - Run tabs Julia Stone - The Memory Machine
e-chords

Other versions:

tabs Liam Finn - Burn Up The Road
auto scroll beats size up size down change color hide chords drawings
tab show chords e-chords YouTube Clip e-chords hide all tabs e-chords go to top tab

share