lh (youtuber)

So This Is Love

lh (youtuber)

tabs

by  TERR_SCHMITZ

save to print version add songbook text version e-mail correct tuner
chordsukulelecavacokeyboardtabbassdrumsharmonicaflute Guitar Pro
close

there isn't a video lesson for this song

chords

So This Is Love

	  		Intro 
e|-------------------------------------------------------------------------------------| 
B|------1-------1----------1--------1-----------3-------3------------1---------1-------| 
G|------2-------2----------2--------2-----------3-------3------------3---------3-------|  x2 
D|-------------------------------------------------------------------------------------| 
A|--------------------------------------------------------------3-------3---3----3-----| 
E|--1-----1--1-----1---2-----2--2------2----3-----3---3----3---------------------------| 


Verse 
e|-------------------------------------------------------------17--15-13-12-15---13-12-11---v10--| 
B|--13-15-13-15----13-15-13-15----13-15-13--\15-----13-15-17-------------------------------------| 
G|-----------------------------------------------------------------------------------------------|  x2 
D|-----------------------------------------------------------------------------------------------| 
A|-----------------------------------------------------------------------------------------------| 
E|-----------------------------------------------------------------------------------------------| 

e|-----------------------------------------------5--3-1-0-3---1-0-------| 
B|--1-3-1-3----1-3-1-3----1-3-1--\3-----1-3-5---------------------3-3---| 
G|----------------------------------------------------------------------|   
D|----------------------------------------------------------------------| 
A|----------------------------------------------------------------------| 
E|----------------------------------------------------------------------| 


e|-----------------------------------------------5--3-1-0-3---1-0--------5-| 
B|--1-3-1-3----1-3-1-3----1-3-1--\3-----1-3-5---------------------3-3------| 
G|-------------------------------------------------------------------------|   
D|-------------------------------------------------------------------------| 
A|-------------------------------------------------------------------------| 
E|-------------------------------------------------------------------------| 

e|-5-3-1-0-3-1-0--------------------------------------------------------------------| 
B|----------------3--3--1-\3---3-----3-5-6-8-10-11-\13-11-10-\11-10-11/8--8-8-8---10| 
G|----------------------------------------------------------------------------------| 
D|----------------------------------------------------------------------------------| 
A|----------------------------------------------------------------------------------| 
E|----------------------------------------------------------------------------------| 


e|----------------------------------------------------------------| 
B|----10-11-10-8--10-11-\13-13-15-13-11-10-----10--/8-------------| 
G|----------------------------------------------------------------| 
D|----------------------------------------------------------------| 
A|----------------------------------------------------------------| 
E|----------------------------------------------------------------| 

e|-----------------------------------------------------------------------------------------------| 
B|--13-15-13-15----13-15-13-15----13-15-13--\15----------1-3-1-3----1-3-1-3-----1-3-1-\3---------| 
G|-----------------------------------------------------------------------------------------------| 
D|-----------------------------------------------------------------------------------------------| 
A|-----------------------------------------------------------------------------------------------| 
E|-----------------------------------------------------------------------------------------------| 


e|---------------------------------------------------------------------------| 
B|--13--15--13--15----13--15--13--15-----13--15--13--15----------------------| 
G|---------------------------------------------------------------------------| 
D|---------------------------------------------------------------------------| 
A|---------------------------------------------------------------------------| 
E|---------------------------------------------------------------------------| 

e|----------------------------------------------------------------------------------------------------| 
B|--1--3-1--3----1--3-1--3----1--3-1--\3------13--15--13--15----13--15-13--15----13--15--13--\15------| 
G|----------------------------------------------------------------------------------------------------| 
D|----------------------------------------------------------------------------------------------------| 
A|----------------------------------------------------------------------------------------------------| 
E|----------------------------------------------------------------------------------------------------| 



************************************ 

| \  Slide down 
| /  Slide up 
| v   

************************************ 
		  

auto scroll beats size up size down change color hide chords drawings
tab show chords e-chords YouTube Clip e-chords hide all tabs e-chords go to top tab