Letlive

Muther

Letlive

tabs

by  PAULLET3

save to print version add songbook text version e-mail correct tuner
chordsukulelecavacokeyboardtabbassdrumsharmonicaflute Guitar Pro
close

there isn't a video lesson for this song

chords

Muther

Key:  C# More
Muther Key G#G#
Muther Key AA
Muther Key A#A#
Muther Key BB(one step down)
Muther Key CC(half step down)
Muther Key C#C#(original key)
Muther Key DD(half step up)
Muther Key D#D#(one step up)
Muther Key EE
Muther Key FF
Muther Key F#F#
Muther Key GG
	  		

Intro 
e|--2-2-2-22-22-2-22---------------------------------------------| 
B|--3-3-3-33-33-3-33---------------------------------------------| 
G|--4-4-4-44-44-4-44---7-7-7-77-77-7-77--------------------------| 
D|--4-4-4-44-44-4-44---7-7-7-77-77-7-77--------------------------| 
A|--2-2-2-22-22-2-22---5-5-5-55-55-5-55--------------------------| 
E|---------------------5-5-5-55-55-5-55-let ring into verse------| x2 

Verse   "Rest easily..." 00:17 
e|--2~-----------------------------------------------------------| 
B|--3~-----------------------------------------------------------| 
G|--4~-----------------7~----------------------------------------| 
D|--4~-----------------7~----------------------------------------| 
A|--2~-----------------5~----------------------------------------| 
E|---------------------5~----------------------------------------| x2 

        "Rest easily..." 00:32 
e|--2-22-2-------------------------------------------------------| 
B|--3-33-3-------------------------------------------------------| 
G|--4-44-4-2-2-22-22-7-77-77-77-7-77-----------------------------| 
D|--4-44-4-0-0-00-00-7-77-77-77-7-77-----------------------------| 
A|--2-22-2-0-0-00-00-5-55-55-55-5-55-----------------------------| 
E|---------0-0-00-00-5-55-55-55-5-55-----------------------------| 

e|--2-22-2-------------------------------------------------------| 
B|--3-33-3-------------------------------------------------------| 
G|--4-44-4-2-2-22-22-7-77-77-77-7-777~---------------------------| 
D|--4-44-4-0-0-00-00-7-77-77-77-7-777~---------------------------| 
A|--2-22-2-0-0-00-00-5-55-55-55-5-555~---------------------------| 
E|---------0-0-00-00-5-55-55-55-5-555~---------------------------| 

Guitar 2        "Rest easily..." 00:32 
e|-----15-14-----------------------------------------------------| 
B|--12-----------------------------------------------------------| Tremelo pick each note 
G|---------------------------------------------------------------| 
D|---------------------------------------------------------------| 
A|---------------------------------------------------------------| 
E|---------------------------------------------------------------| 

e|-----15-14-17-19~----------------------------------------------| 
B|--12-----------------------------------------------------------| Tremelo pick each note 
G|---------------------------------------------------------------| 
D|---------------------------------------------------------------| 
A|---------------------------------------------------------------| 
E|---------------------------------------------------------------| 

Pre-Chorus      "So stay home..." 00:51 
e|---------------------------------------------------------------| 
B|--3-3-xx23-3-3-xx2323------------------------------------------| 
G|--4-4-xx44-4-4-xx4444-7-7-777-7-7-777-777----------------------| 
D|--4-4-xx44-4-4-xx4444-7-7-777-7-7-777-777----------------------| 
A|--2-2-xx22-2-2-xx2222-5-5-555-5-5-555-555----------------------| 
E|----------------------5-5-555-5-5-555-555----------------------| 

"In a bed, alone..." 00:59 
e|---------------------------------------------------------------| 
B|--3-3-xx23-3-3-xx2323------------------------------------------| 
G|--4-4-xx44-4-4-xx4444-7-7-777-7-7-777-77-----------------------| 
D|--4-4-xx44-4-4-xx4444-7-7-777-7-7-777-77-----------------------| 
A|--2-2-xx22-2-2-xx2222-5-5-555-5-5-555-55-----------------------| 
E|----------------------5-5-555-5-5-555-55-----------------------| 

Chorus  "And all because of you..." 01:07 
e|--2-22222-2222--------------2-22222-2222-----------------------| 
B|--3-33333-3333--------------3-33333-3333-----------------------| 
G|--4-44444-4444-7-77777-7777-4-44444-4444-7-77777-7777----------| 
D|--4-44444-4444-7-77777-7777-4-44444-4444-7-77777-7777----------| 
A|--2-22222-2222-5-55555-5555-2-22222-2222-5-55555-5555----------| 
E|---------------5-55555-5555--------------5-55555-5555----------| 

e|--2-22222-2222---------------22-222----------------------------------------2~--| 
B|--3-33333-3333---------------33-333----------------------------------------3~--| 
G|--4-44444-4444-7-77777-7777--44-444-77-777-99-999-7-77777-7777777777999999-4~--| 
D|--4-44444-4444-7-77777-7777--44-444-77-777-77-777-7-77777-7777777777777777-4~--| 
A|--2-22222-2222-5-55555-5555--22-222-55-555-77-777-5-55555-5555444444777777-2~--| 
E|---------------5-55555-5555----------------77-777-5-55555-5555444444777777-----| 

Guitar 2 
e|-----10-9--------10-9-------10-9-------10-9----15--14----------| 
B|--12------10--12------10-12------10-12------10-----------------| Tremelo pick each note 
G|---------------------------------------------------------------| (mostly 6 times each) 
D|---------------------------------------------------------------| 
A|---------------------------------------------------------------| 
E|---------------------------------------------------------------| 

e|-----10-9--------10-9----5-7-9-10---14-12-10~------------------| 
B|--12------10--12------10---------------------------------------| Tremelo pick each note 
G|---------------------------------------------------------------| (mostly 6 times each) 
D|---------------------------------------------------------------| 
A|---------------------------------------------------------------| 
E|---------------------------------------------------------------| 

Verse   01:37 
e|--~2-----------------------------------------------------------| 
B|--~3-----------------------------------------------------------| 
G|--~4------------------7~---------------------------------------| 
D|--~4------------------7~---------------------------------------| 
A|--~2------------------5~---------------------------------------| 
E|----------------------5~---------------------------------------|  

        "Wait eagerly..." 01:45 
e|--~2-----------------------------------------------------------| 
B|--~3-----------------------------------------------------------| 
G|--~4------------------7~---------------------------------------| 
D|--~4------------------7~---------------------------------------| 
A|--~2------------------5~---------------------------------------| 
E|----------------------5~---------------------------------------| x2 

"He said, 'wait he's with me...'" 
e|--2-22-2-------------------------------------------------------| 
B|--3-33-3-------------------------------------------------------| 
G|--4-44-4-2-2-22-22-7-77-77-77-7-77-----------------------------| 
D|--4-44-4-0-0-00-00-7-77-77-77-7-77-----------------------------| 
A|--2-22-2-0-0-00-00-5-55-55-55-5-55-----------------------------| 
E|---------0-0-00-00-5-55-55-55-5-55-----------------------------| 

e|--2-22-2-------------------------------------------------------| 
B|--3-33-3-------------------------------------------------------| 
G|--4-44-4-2-2-22-22-7-77-77-77-7-777-7~-7~----------------------| 
D|--4-44-4-0-0-00-00-7-77-77-77-7-777-7~-7~----------------------| 
A|--2-22-2-0-0-00-00-5-55-55-55-5-555-5~-5~----------------------| 
E|---------0-0-00-00-5-55-55-55-5-555-4~-5~----------------------| 

Pre-Chorus      "So stay home..." 02:17 
e|---------------------------------------------------------------| 
B|--3-3-xx23-3-3-xx2323------------------------------------------| 
G|--4-4-xx44-4-4-xx4444-7-7-777-7-7-777-777----------------------| 
D|--4-4-xx44-4-4-xx4444-7-7-777-7-7-777-777----------------------| 
A|--2-2-xx22-2-2-xx2222-5-5-555-5-5-555-555----------------------| 
E|----------------------5-5-555-5-5-555-555----------------------| 

"In a bed, alone..." 02:25 
e|---------------------------------------------------------------| 
B|--3-3-xx23-3-3-xx2323------------------------------------------| 
G|--4-4-xx44-4-4-xx4444-7-7-777-7-7-777-77-----------------------| 
D|--4-4-xx44-4-4-xx4444-7-7-777-7-7-777-00-----------------------| 
A|--2-2-xx22-2-2-xx2222-5-5-555-5-5-555-00-----------------------| 
E|----------------------5-5-555-5-5-555-00-----------------------| 



Chorus  "And all because of you..." 02:32 

Last Chorus is played twice, the second-guitar 
tremelo riff is played the first time round, 
then only in the second half of the second time  
the Chorus is played. 

e|--2-22222-2222--------------2-22222-2222------------------|       
B|--3-33333-3333--------------3-33333-3333------------------|        
G|--4-44444-4444-7-77777-7777-4-44444-4444-7-77777-7777-----|       
D|--4-44444-4444-7-77777-7777-4-44444-4444-7-77777-7777-----| 
A|--2-22222-2222-5-55555-5555-2-22222-2222-5-55555-5555-----| 
E|---------------5-55555-5555--------------5-55555-5555-----| 

e|--2-22222-2222---------------22-222----------------------------------------2~--| 
B|--3-33333-3333---------------33-333----------------------------------------3~--| 
G|--4-44444-4444-7-77777-7777--44-444-77-777-99-999-7-77777-7777777777999999-4~--| 
D|--4-44444-4444-7-77777-7777--44-444-77-777-77-777-7-77777-7777777777777777-4~--| 
A|--2-22222-2222-5-55555-5555--22-222-55-555-77-777-5-55555-5555444444777777-2~--| 
E|---------------5-55555-5555----------------77-777-5-55555-5555444444777777-----| 

Guitar 2 
e|-----10-9--------10-9-------10-9-------10-9----15--14----------| 
B|--12------10--12------10-12------10-12------10-----------------| Tremelo pick each note 
G|---------------------------------------------------------------| (mostly 6 times each) 
D|---------------------------------------------------------------| 
A|---------------------------------------------------------------| 
E|---------------------------------------------------------------| 

e|-----10-9--------10-9----5-7-9-10---14-12-10~------------------| 
B|--12------10--12------10---------------------------------------| Tremelo pick each note 
G|---------------------------------------------------------------| (mostly 6 times each) 
D|---------------------------------------------------------------| 
A|---------------------------------------------------------------| 
E|---------------------------------------------------------------| 




INTERLUDE: 

Piano melody 03:34 
e|---------------------------------------------------------------------------| 
B|---------------------------------------------------------------------------| 
G|-----4-----4~---------3h4-----4-----4-----4-----4----------3h4----4-----4--| 
D|-----4-----3~--4~--4h5-----2--4--0--4-----4-----3~--4~--2h4----5--4--0--4--| 
A|--2-----5------------------------------2-----5-----------------------------| 
E|---------------------------------------------------------------------------| 

"Don't you cry, mama..." 03:50                Guitar 04:00 
e|---------------------------------------|  e|-------------------------------------------| 
B|---------------------------------------|  B|-------------------------------------------| 
G|----4---4----4---3h4---4---4----4---4--|  G|-------------------------------------------| 
D|----4---4----4--4----2-4-2-4--5-4-5-4--|  D|----2---2h4---2---2h4---0---0h2---0---0h2--| 
A|--2---2----5---5-----------------------|  A|--2---2-----0---0--------------------------| 
E|---------------------------------------|  E|----------------------5---5-----2---2------| x8 

04:43                                           end on 
e|--------------------------------------------|---------| 
B|--333333333333333333------------------------|---------| 
G|--444444444444444444--777777777777777777----|----7~---| 
D|--444444444444444444--555555555555555555----|----5~---| 
A|--222222222222222224--555555555555555555----|----5~---|  
E|----------------------555555555555555555----|----5~---| x8 




x - scratch 
h - hammer on 
~ - let ring