Letlive

Banshee

Letlive

tabs

by  ALEFFEDERICO

save to print version add songbook text version e-mail correct tuner
chordsukulelecavacokeyboardtabbassdrumsharmonicaflute Guitar Pro
close

there isn't a video lesson for this song

chords

Banshee

Key:  C# More
Banshee Key G#G#
Banshee Key AA
Banshee Key A#A#
Banshee Key BB(one step down)
Banshee Key CC(half step down)
Banshee Key C#C#(original key)
Banshee Key DD(half step up)
Banshee Key D#D#(one step up)
Banshee Key EE
Banshee Key FF
Banshee Key F#F#
Banshee Key GG
	  		

Intro 

e|--------0-----0------0--------------------------------------------------------| 
B|--------0-----0------0--------------------------------------------------------| 
G|--------0-----0------0--------------------------------------------------------| 
D|-------------------------x5-------0-------------------------------------------| 
A|000-2-----2------2----------------0-------------------------------------------| 
E|000-2-----2------2----------------0-------------------------------------------| 

e|----------------------------0---------0----------0----------------------------| 
B|----------------------------0---------0----------0----------------------------| 
G|----------------------------0---------0----------0----------------------------| 
D|-------------x2-----------------------------------------------------x4--------| 
A|000--2----------------------------2------------------55--0---2----------------| 
E|000--2-------------2p02p0---------2------2p02p0------55--0---2----------------| 

Verse (all tremolo picked) 

e|---------------------------------------------------------------------------| 
B|---------------------------------------------------------------------------| 
G|---------------------------------------------------------------------------| 
D|---9---7--5--2-----9---7---5---4-----x3------------------------------------| 
A|---------------------------------------------------------------------------| 
E|---------------------------------------------------------------------------| 

Chorus 

e|---------------------0-------0----------0-------------------------------------| 
B|---------------------0-------0----------0-------------------------------------| 
G|---------------------0-------0----------0-------------------------------------| 
D|----------------------------------------------x5------------------------------| 
A|-55--0---2---------------2----------------------------------------------------| 
E|-55--0---2---2p02p0------2-----2p02p0-----------------------------------------| 

Repeat verse 

Pre-Chorus 

e|--------------------------------------------------------------------------------------| 
B|-12------------15-----------10-----------8-------12----------15-------10--------------| 
G|-11------------14-----------9------------7-------11----------14-------9---------------| 
D|-9----x16------12-----x3----7-----x16----5---x3--9-----x16---12---x3--7----x8---------| 
A|-9-------------12-----------7------------5-------9-----------12-------7---------5-----| 
E|--------------------------------------------------------------------------------5-----| 

Repeat Chorus 

Bridge 

e|---------------------------------------------------------------------------| 
B|--18b----------------------------------------------------------------------| 
G|---------------------------------------------------------------------------| 
D|----------------------------x3---------------------------------------------| 
A|-------0-------------------------------------------------------------------| 
E|-------0---2-2-0-2-4-2-0---------------------------------------------------| 

Clean part 

e|----------------------------/------------------------------------------------| 
B|----------------1-----------/------------------------------------------------| 
G|---7------------------------/------------------------------------------------| 
D|---9----x16-----2----x16----/----x6------------------------------------------| 
A|----------------3-----------/------------------------------------------------| 
E|----------------------------/------------------------------------------------| 

Repeat Chorus 

End 

e|---------------------------------------------------------------------------| 
B|-18b-----------------------------------------------------------------------| 
G|---------------------------------------------------------------------------| 
D|---------------------------------------------------------------------------| 
A|-------2-------------------------------------------------------------------| 
E|-------2-------------------------------------------------------------------| 


************************************ 

| /   slide up 
| \   slide down 
| h   hammer-on 
| p   pull-off 
| ~   vibrato 
| +   harmonic 
| x   Mute note 
| b   Bend 
| pb  Pre-bend 
| br  Bend release 
| pbr Pre-bend release 
| brb Bend release bend 

************************************ 
		  

See also:

tabs Bon Jovi - It's My Life tabs Foo Fighters - Learn to Fly (acoustic version) tabs Jack Johnson - Good People tabs The Offspring - Pretty Fly (For a White Guy) tabs Guns N' Roses - Godfather Theme tabs Guns N' Roses - Nightrain
e-chords

Other versions:

tabs Furor Gallico - Banshee tabs Letlive - Banshee
auto scroll beats size up size down change color hide chords drawings
tab show chords e-chords YouTube Clip e-chords hide all tabs e-chords go to top tab

share