Less Than Jake

Welcome To My Life

Less Than Jake

tabs

by  ANG-LETRA

save to print version add songbook text version e-mail correct tuner
chordsukulelecavacokeyboardtabbassdrumsharmonicaflute Guitar Pro
close

there isn't a video lesson for this song

chords

Welcome To My Life

	  		
Intro 

e|-2-2---2-2---2-2--0--0-2--2--2-2--2-|--7--7--7-7--7-|--3--3--3-3--3--| 
B|-3-3---3-3---3-3--3--3-3--3--3-3--3-|--7--7--7-7--7-|--3--3--3-3--3--| 
G|-2-2---2-2---2-2--2--2-2--2--2-2--2-|---------------|--4--4--4-4--4--| 
D|-0-0---0-0---0-0--0--0-0--0--0-0--0-|---------------|--5--5--5-5--5--| (x2) 
A|------------------------------------|---------------|----------------| 
E|------------------------------------|---------------|----------------| 


Chorus 1 

e|-2-2---2-2---2-2--0--0-2--2--2-2--2-|--7--7--7-7--7-|--3--3--3-3--3--| 
B|-3-3---3-3---3-3--3--3-3--3--3-3--3-|--7--7--7-7--7-|--3--3--3-3--3--| 
G|-2-2---2-2---2-2--2--2-2--2--2-2--2-|---------------|--4--4--4-4--4--| 
D|-0-0---0-0---0-0--0--0-0--0--0-0--0-|---------------|--5--5--5-5--5--| (x2) 
A|------------------------------------|---------------|----------------| 
E|------------------------------------|---------------|----------------| 


verse 1 

e|--2--2--3--3--7--7--3-3--|--2--2--3--3--7--7--3-3--| 
B|--3--3--3--3--7--7--3-3--|--3--3--3--3--7--7--3-3--| 
G|--2--2--4--4--------4-4--|--2--2--4--4--------4-4--| 
D|--0--0--5--5--------5-5--|--0--0--5--5--------5-5--| 
A|-------------------------|-------------------------| 
E|-------------------------|-------------------------| 

e|--2--2--3--3--7--7--3-3--|--2--2--3--3--7--7--7--7--3--3--3--3-| 
B|--3--3--3--3--7--7--3-3--|--3--3--3--3--7--7--7--7--3--3--3--3-| 
G|--2--2--4--4--------4-4--|--2--2--4--4--------------4--4--4--4-| 
D|--0--0--5--5--------5-5--|--0--0--5--5--------------5--5--5--5-| 
A|-------------------------|-------------------------------------| 
E|-------------------------|-------------------------------------| 


Chorus 2 

e|-2-2---2-2---2-2--0--0-2--2--2-2--2-|--7--7--7-7--7-|--3--3--3-3--3--| 
B|-3-3---3-3---3-3--3--3-3--3--3-3--3-|--7--7--7-7--7-|--3--3--3-3--3--| 
G|-2-2---2-2---2-2--2--2-2--2--2-2--2-|---------------|--4--4--4-4--4--| 
D|-0-0---0-0---0-0--0--0-0--0--0-0--0-|---------------|--5--5--5-5--5--| (x2) 
A|------------------------------------|---------------|----------------| 
E|------------------------------------|---------------|----------------| 


verse 2 

e|--2--2--3--3--7--7--3-3--|--2--2--3--3--7--7--3-3--| 
B|--3--3--3--3--7--7--3-3--|--3--3--3--3--7--7--3-3--| 
G|--2--2--4--4--------4-4--|--2--2--4--4--------4-4--| 
D|--0--0--5--5--------5-5--|--0--0--5--5--------5-5--| 
A|-------------------------|-------------------------| 
E|-------------------------|-------------------------| 

e|--2--2--3--3--7--7--3-3--|--2--2--3--3--7--7--7--7--3--3--3--3-| 
B|--3--3--3--3--7--7--3-3--|--3--3--3--3--7--7--7--7--3--3--3--3-| 
G|--2--2--4--4--------4-4--|--2--2--4--4--------------4--4--4--4-| 
D|--0--0--5--5--------5-5--|--0--0--5--5--------------5--5--5--5-| 
A|-------------------------|-------------------------------------| 
E|-------------------------|-------------------------------------| 


Solo 

e|--------------------------|----------------------|--------------------------|----------------------| 
B|--------------------------|----------------------|--------------------------|----------------------| 
G|--------------------------|----------------------|--------------------------|----------------------| 
D|--------------------0-2-4-|----------------------|--------------------0-2-4-|----------------------| 
A|------0-2--2-5-5--5-------|----------4-5-7-5-0---|------0-2--2-5-5--5-------|----------4-5-7-5-0---| 
E|-3-3----------------------|-5-5--x-5-----------3-|-3-3----------------------|-5-5--x-5-----------3-| 

e|--------------------------|----------------------|--------------------------|------------------| 
B|--------------------------|----------------------|--------------------------|------------------| 
G|--------------------------|----------------------|--------------------------|------------------| 
D|--------------------0-2-4-|----------------------|--------------------0-2-4-|-----------/5-4---| 
A|------0-2--2-5-5--5-------|----------4-5-7-5-0---|------0-2--2-5-5--5-------|----------------5-| 
E|-3-3----------------------|-5-5--x-5-----------3-|-3-3----------------------|-5-5---5----------| 


Chorus 3 

e|-2-2---2-2---2-2--0--0-2--2--2-2--2-|--7--7--7-7--7-|--3--3--3-3--3--| 
B|-3-3---3-3---3-3--3--3-3--3--3-3--3-|--7--7--7-7--7-|--3--3--3-3--3--| 
G|-2-2---2-2---2-2--2--2-2--2--2-2--2-|---------------|--4--4--4-4--4--| 
D|-0-0---0-0---0-0--0--0-0--0--0-0--0-|---------------|--5--5--5-5--5--| (x2) 
A|------------------------------------|---------------|----------------| 
E|------------------------------------|---------------|----------------| 


Outro 

e|--5-5---5-5--5---8--8--|---8-3-3--3-x-2--| 
B|--5-5---5-5--5---8--8--|---8-3-3--3-x-3--| 
G|--6-6---6-6--6---9--9--|---9-4-4--4-x-2--| 
D|--7-7---7-7--7--10-10--|--10-5-5--5-x-0--| 
A|-----------------------|-----------------| 
E|-----------------------|-----------------| 




************************************ 

| x   Dead note 
| /   Slide up 

************************************ 
		  

auto scroll beats size up size down change color hide chords drawings
tab show chords e-chords YouTube Clip e-chords hide all tabs e-chords go to top tab

share