Less Than Jake

Sugar In Your Gas Tank

Less Than Jake

tabs Advanced advanced

by  DEIO.PUNXXX

save to print version add songbook text version e-mail correct tuner
chordsukulelecavacokeyboardtabbassdrumsharmonicaflute Guitar Pro
close

there isn't a video lesson for this song

chords

Sugar In Your Gas Tank

	  		Intro: 
 
e|--777-----------| 
B|--777-----------| 
G|--888---99-9-9--| 
D|--999---99-9-9--| 
A|--999---77-7-7--| 
E|--777-----------| 
 
 
Verso: 
"If I had a scheme for everything..." 
 
e|--7-7-7-7---7-7-7-7----9--9--9--9---7-7-7---| 
B|--7-7-7-7---9-9-9-9---11-11-11-11---9-9-9---| 
G|--8-8-8-8---9-9-9-9---11-11-11-11---9-9-9---| 
D|--9-9-9-9-----------------------------------| 
A|--9-9-9-9-----------------------------------| 
E|--7-7-7-7-----------------------------------| 
 
 
Refrão: 
"If I had it in me to stop my random thoughts..." 
 
e|------------------------------------------------------------| 
B|------------------------------------------------------------| 
G|--------9999-11-11-11-11-11--9999------999-11-11-11-99------| 
D|--99999-9999-11-11-11-11-11--9999--999-999-11-11-11-99-999--| 
A|--99999-7777--9--9--9--9--9--7777--999-777--9--9--9-77-999--| 
E|--77777----------------------------777-----------------777--|  
 
e|------------------------| 
B|------------------------| 
G|------------------------| 
D|--444444-2-2-22-2-------| 
A|--444444-2-2-22-2-------| 
E|--222222-0-0-00-0-------| 
 
 
Ponte: 
 
e|----------------------------------------------| 
B|----------------------------------------------| 
G|--444444444-----------------------------------| 
D|--444444444-4444444444-7777777777-2222222-----| 
A|--222222222-4444444444-7777777777-2222222-----| 
E|------------2222222222-5555555555-0000000-----| 
 
 
Um skazim naum faz maw a ngm !!! Flwzzz galera !!! 
		  

auto scroll beats size up size down change color hide chords drawings
tab show chords e-chords YouTube Clip e-chords hide all tabs e-chords go to top tab

share