Leroy Sanchez

home > Leroy Sanchez

I'm Not The Only One Tab

Leroy Sanchez

Difficulty: EasyEasy

by lucicamargo

tuner correct add songbook print version text version save to e-mail
chordsukulelecavacokeyboardtabbassdrumsharmonicsflute Guitar Pro
chords

I'm Not The Only One

  		


All notes and chords are relative to the capo. This is just a base. Spice it up. Add your own style. 

 
 
Intro/Verse/Chorus 
|----------------------------| 
|---------------------1------| 
|-------0--0-----1-1--0---0--| 
|--0h2--------2--0-0--2---3--| 
|--3-------------2-2--0---3--| 
|--3-------------------------| 


|------------------------| 
|------------------------| 
|-------0-------------0--| 
|--0h2-----2-----0-0--2--| 
|--3----------3--2-2--3--| 
|--3-------------3-3--3--| 


Bridge 
|-----------------------------------| 
|-----------------1-----------------| 
|--0---------1----0----0---------0--| 
|--3----2----0----2----3----2----3--| 
|--3----3----2----0----3----3----3--| 
|-------3-------------------3-------| 
	  

Full key step upFull key step up
Half key step upHalf key step up
Half key step downHalf key step down
Full key step downFull key step down
Search Paypal
auto scroll beats size up size down change color hide chords drawings
tab show chords e-chords YouTube Clip e-chords hide all tabs e-chords go to top tab