Léia Sora

Meu Paizinho Caminheiro

Léia Sora

tabs

by  ECRODOVALHO

save to print version add songbook text version e-mail correct tuner
chordsukulelecavacokeyboardtabbassdrumsharmonicaflute Guitar Pro
close

there isn't a video lesson for this song

chords

Meu Paizinho Caminheiro

(Ely Costa)

	  		Meu Paizinho Caminheiro 

Tom: C 
Ritmo: Solo 
Introd.: C Am F G 


        C           Am       F      G 

E|-------------------------------------------------------------------------------------------------------------------------------- 
B|---8---------8------------------------8-------8------------------------------8---8--10-8------------8------------------------------------- 
G|------9-10-----------------------------9-10-----------------------------------9-----------9-10-10---10-9--------------------------- 
D|----------------10-7-9-10-9-7-9----------------10-7-9-10-9-7-9-------------------------------------------2-4-5-4-2----4-5-- 
A|-------------------------------------------------------------------------------------------------------------------------------- 
E|------------------------------------------------------------------------------------------------------------------------------- 


       C          Am                  F                         G 
E|--------------------------------------------------------------------------------------------- 
B|--8---8--10-8-------------8-------------------------------------------------------------------- 
G|----9------------9-10-10----10-9--------------------------------------------------------------- 
D|-------------------------------------------2-4-5-2--4-5------------------------------------------------- 
A|--------------------------------------------------------------------------------------------- 
E|--------------------------------------------------------------------------------------------- 


E|--------------------------------------------------------------------------------------------- 
B|--------------------------------------------------------------------------------------------- 
G|--0------0---------------------------------0----0-2-0---------0---------------------------------- 
D|----2-3---------------------------------------2----------2-3-3---3-2-0---------------------------- 
A|-------------3--0-2-3-2----------0-2-3--------------------------------------3-2-3--0-2-3-2---0-2-3---- 
E|--------------------------------------------------------------------------------------------- 


LER DURANTE O SOLO 

O meu coração de filha,com os braços bem abertos 
descera cortina do templo,e a neblina aos berros 
o meu coração sem parada,segue a trilha dos teus passos 
atravessa cidades,rios,mares,campos e espaços 
o meu coração sem fronteiras,no seu doce caminhar 
percebe cantanti com pressa,sabendo onde vai chegar 
o meu coração sem poesia,é um coração de poeta 
buscando num chão bem distante,as marcas de um de guerra 
ele persegue no templo,pegadas de um caminhar cansado 
do meu paizinho pregador,que só ensina o amor 
a sua bondade mansa,de vocação mui divina 
ajuda os viajantes,desta longa e ar doa lida 
meu paizinho caminheiro,amigo dos de jornada 
guias a luz celeste,e cobrar nunca por nada 
meu paizinho andarilho,um dia vai descansar 
agradecerei tua guerra teu saber e teu sonhar 
oh meu querido paizinho,sabendo tuas noites de orar 
aumentarei minhas forças,pra sempre te acompanhar 
caminheiro samaritano,conhecendo tuas vitórias,tuas alegrias 
me recordarei de tudo,das madrugadas longas e frias, 
meu querido paizinho,que passavas a orar 
pelas almas que pereciam as quais tu soubeste amar 
meu paizinho caminheiro,que me ensinou caminhar 
eu caminho nos teus passos,com igual presa, de chegar 
		  

Full key step upFull key step up
Half key step upHalf key step up
Half key step downHalf key step down
Full key step downFull key step down
hide glossary

See also:

tabs Ira! - Poço de Sensibilidade (Solo - Acustico Mtv) tabs Deep Purple - Smoke On The Water tabs Deep Purple - Smoke on the water (intro) tabs Ira! - Eu Quero Sempre Mais (Com Pitty, intro) tabs Deep Purple - Smoke on the Water (ver. 2) tabs Deep Purple - Knocking At Your Back Door
e-chords

Other versions:

tabs Léia Soares - Meu Paizinho Caminheiro tabs Léia Sora - Meu Paizinho Caminheiro
auto scroll beats size up size down change color hide chords drawings
tab show chords e-chords YouTube Clip e-chords hide all tabs e-chords go to top tab

share