Legião Urbana

Vento no Litoral

Legião Urbana

tabs Beginner beginner

by  HOMMER_NEW

save to print version add songbook text version e-mail correct tuner
chordsukulelecavacokeyboardtabbassdrumsharmonicaflute Guitar Pro
close

there isn't a video lesson for this song

chords

Vento no Litoral

Year: 1991 - Album: Slidepac Legião Urbana - V

	  		Introd.: Am Em Am Em F C F C 
 
Violão 1 Base 
    Am                Em    
E|-----0----------|------7-----------| 
B|--1-------3---1-|-----------10---8-| 
G|--2-----2---2---|---9-----9----9---| 
D|--2-------------|---9--------------| 
A|--0-------------|---7--------------| 
E|----------------|------------------| 
    F                 C 
E|-----------------|-----------------| 
B|-----6----5----3-|----5---3--------| 
G|-----------------|--------------5--| 
D|--3----3----3----|-----------------| 
A|-----------------|-3----3----3-----| 
E|-----------------|-----------------| 
 
Violão 2 Solo 
    Am            Em             F              C 
E|----------------7-7s5-5s3-3-|-------------------------------| 
B|--5-5s3--3s1-1--------------|--6-6s5-5s3-3----5-5s3--3s1-1--| 
G|----------------------------|-------------------------------| 
D|----------------------------|-------------------------------| 
A|----------------------------|-------------------------------| 
E|----------------------------|-------------------------------| 
 
     Am                       Em 
 De tarde quero descansar, chegar até a praia 
          Am 
 Ver se o vento ainda está forte 
           Em 
 E vai ser bom subir nas pedras 
         C 
 Sei que faço isso pra esquecer 
    Bb 
 Eu deixo a onda me acertar 
     Am                       F    G Am F G C F 
 E o vento vai levando tudo embora 
 
                 Em 
 Agora está tão longe 
                    Dm 
 Vê, a linha do horizonte me distrai: 
            G                          F 
 Dos nossos planos é que tenho mais saudade, 
                  Em                   Dm 
 Quando olhávamos juntos na mesma direção 
       Bb 
 Aonde está você agora 
          Am                 F G Am F G Am 
 Além de aqui, dentro de mim? 
 
Solo sobre o violão 1 da introdução 
     Am                               Em 
E|------12-------------------------|------19-----17------15~-| 
B|-------------15----13----12------|--17-----17------17------| 
G|---14-----14----14----14----12~--|-------------------------| 
D|---------------------------------|-------------------------| 
A|---------------------------------|-------------------------| 
E|---------------------------------|-------------------------| 
    F             C             F             F   G      Am     F   G              
E|------------------------------------------|----------------------------| 
B|--5-5s3-3s1-1---6-6s5-5s3-3---5-5s3-3s1-1-|-0--1--3--0-----0--1--3--0--| 
G|------------------------------------------|-------------2--------------| 
D|------------------------------------------|----------------------------| 
A|------------------------------------------|----------------------------| 
E|------------------------------------------|----------------------------| 
 
 C                Cm 
 Agimos certo sem querer 
 G/B 
 Foi só o tempo que errou 
 Bb 
 Vai ser difícil sem você 
    A4              A            Dm 
 Porque você está comigo o tempo todo 
 Quando vejo o mar 
 C 
 Existe algo que diz: 
      G/B      Am            G           F 
 - A vida continua e se entregar é uma bobagem 
 Em          A7        Dm 
 Já que você não está aqui, 
              Dm/C      Bb     G 
 O que posso fazer é cuidar de mim 
       C 
 Quero ser feliz ao menos 
 F            Bb          G 
 Lembra que o plano era ficarmos bem? 
 
   Am  Em                Am   G C                F E4 E 
 - Ei, olha só o que eu achei:   cavalos-marinhos 
 
    Am                Em    
E|-----0----------|------7-----------|\ 
B|--1-------3---1-|-----------10---8-| \ 
G|--2-----2---2---|---9-----9----9---|  \2x 
D|--2-------------|---9--------------|  / 
A|--0-------------|---7--------------| / 
E|----------------|------------------|/ 
 
 Em       C 
 Sei que faço isso pra esquecer 
    Bb 
 Eu deixo a onda me acertar 
     Am          G            F   G C  
 E o vento vai levando tudo embora 
 
    F                 C 
E|-----------------|-----------------|\ 
B|-----6----5----3-|----5---3--------| \ 
G|-----------------|--------------5--|  \3x 
D|--3----3----3----|-----------------|  / 
A|-----------------|-3----3----3-----| / 
E|-----------------|-----------------|/ 
 
Solo do teclado 
E|-----------5-7-8--8-8-8--7-5-7--7-7-7-5----5--5-5-5----------|\ 
B|--8-8-8-8-------------------------------8-------------8-7-8--| \ 
G|-------------------------------------------------------------|  \3x 
D|-------------------------------------------------------------|  / 
A|-------------------------------------------------------------| / 
E|-------------------------------------------------------------|/ 
		  

Full key step upFull key step up
Half key step upHalf key step up
Half key step downHalf key step down
Full key step downFull key step down
auto scroll beats size up size down change color hide chords drawings
tab show chords e-chords YouTube Clip e-chords hide all tabs e-chords go to top tab

share