Legião Urbana

O Teatro Dos Vampiros

Legião Urbana

tabs Beginner beginner

by  HYAGO

save to print version add songbook text version e-mail correct tuner
chordsukulelecavacokeyboardtabbassdrumsharmonicaflute Guitar Pro
close

there isn't a video lesson for this song

chords

O Teatro Dos Vampiros

	  		 C Bm Am D  C Bm Am D G 

 DADO:                     
   C    Bm  Am    D         C    Bm  Am  D 
e|------------------------|---------------------2-----|     
B|---5----3---1-------3-3-|---5----3---1---3------3---|             
G|------------------------|-------------------2-----2-|   
D|-5--5-4---2---2/4-4----4|-5--5-4---2---0------------|            
A|------------------------|---------------------------| 
E|------------------------|---------------------------| 

e|-------------------------|--------------------------| 
B|---5----3---1-------3-3--|---5------7---------8---8-| 
G|-------------------------|------------6-------------| 
D|-5--5-4---2---2/4-4----4-|-5--5-5/7-----7-7/9---9---| 
A|-------------------------|--------------------------| 
E|-------------------------|--------------------------| 


Riff 1(feito pelo DADO) 
e|----------------|                     
B|-3/5-5-5-5-3-1-1|                      
G|----------------|   
                      
Riff 2(feito pelo DADO)       TIRADO POR KERTON GUALBERTO 
  G                                 F    
e|3-3-3-3-3-3-3-3-7-7-7-7-----8---7--5-5---5---5---5---5--|   
B|3-3-3-3-3-3-3-3-8-8-8-8--------------6----6---6---6---6-|  
G|4-4-4-4-4-4-4-4-7-7-7-7-7/9---7---5--5-5---5---5---5---5| 
  C                     G 
e|--3---3---3---3---5-----7--7--7--7--7-7--8-8-8-7-5-7-7-7-7-5-5-|   
B|--------------------------------------8--8-8-8-8-8-8-8-8-8-8-8-|  
G|5---5---5---5---5---5/7--7--7--7--7---7--7-7-7-7-----7-7-7-----| 
   F                      C                 G 
e|---5---5---5---5---5------3--3--3--3--5-----7--7--7--7--7-|   
B|----6---6---6---6---4-------------------------------------|  
G|-5---5---5---5---5---5--5--5--5--5--5---5/7--7--7--7--7---| 

DADO:(durante a música) 
   C          Bm                Bb   
e|-------3-----------0-----|--|-------1-------1----|     
B|----5---5------3----3----|--|----3---3---3---3---|             
G|-------------------------|3x|--------------------|   
D|-5--------5-4---4-----4--|--|-3--------3-------3-|            
A|-------------------------|--|--------------------| 
E|-------------------------|--|--------------------| 

C                      Bm 
Sempre precisei de um pouco de atenção 
C 
Acho que não sei quem sou 
   Bm 
Só sei do que não gosto 
C                   Bm 
E destes dias tão estranhos 
      Bb                              C      RIFF 1 
Fica poeira se escondendo pelos cantos 
C              Bm               C                 Bm 
Este é o nosso mundo: o que é demais nunca é o bastante 
            C                      Bm 
E a primeira vez é sempre a última chance. 
        Bb 
Ninguém vê onde chegamos: 
                         RIFF 1     C                 
Os assassinos estão livres, nós não estamos    
       G 
Vamos sair - mas não temos mais dinheiro 
Os meus amigos todos estão procurando emprego 
   F 
Voltamos a viver como há dez anos atrás 
    C/G 
E a cada hora que passa  
Envelhecemos dez semanas 
G    RIFF 2 
Vamos lá, tudo bem - eu só quero me divertir          
Esquecer, dessa noite ter um lugar legal pra ir 
F 
Já entregamos o alvo e a artilharia 
     C/G 
Comparamos nossas vidas 
E esperamos que um dia 
       G 
Nossas vidas possam se encontrar   Introducão 
C            Bm               C 
Quando me vi tendo de viver comigo apenas 
        Bm 
E com o mundo 
C                   Bm 
Você me veio como um sonho bom 
     Bb 
E me assustei 
                C           RIFF 1 
Não sou perfeito 
Eu não esqueço 
                   Bm 
A riqueza que nós temos 
C                 Bm 
Ninguém consegue perceber 
C                  Bm   Bb 
E de pensar nisso tudo, eu, homem feito 
            C         RIFF 1 
Tive medo e não consegui dormir.    
       G 
Vamos sair - mas não temos mais dinheiro 
Os meus amigos todos estão procurando emprego 
   F 
Voltamos a viver como há dez anos atrás 
    C/G 
E a cada hora que passa  
Envelhecemos dez semanas 

(Essa parte começa assim e depois segue normalmente os acordes do RIFF2) 
   G                                  F                    C ... 
e|-7-7-7-7-7-7-7-7-7-7-8--8--7--7-7---5---5---5---5---5--|   
B|-8-8-8-8-8-8-8-8-8-8-8--8--8--8-8---6----6---6---6---6-|  
G|-7-7-7-7-8-7-7-7-7-7-7--7--7--7-7---5-5---5---5---5---5| 
G    RIFF 2 
Vamos lá, tudo bem - eu só quero me divertir          
Esquecer, dessa noite ter um lugar legal pra ir 

F 
Já entregamos o alvo e a artilharia 

     C/G 
Comparamos nossas vidas 
                    G 
E mesmo assim, não tenho pena de ninguém. 

RENATO: G   Em D/F# ( tocando só as quatro cordas mais graves dos acordes) 

DADO:                               
E|--7-7-8--7-7---:-3-3--3--5-5---:--7-7-8--7-7---:-10-10--10--8--8: repita,  --7--: 
B|--8-8-8--8-8---:-5-5--5--7-7---:--8-8-8--8-8---:-12-12--12-10-10: depois   --8--: 
G|--7-7-7--7-7---:---------------:--7-7-7--7-7---:----------------: termine  --7--: 
D|---------------:---------------:---------------:----------------: com      -----: 
A|---------------:---------------:---------------:----------------:          -----: 
E|---------------:---------------:---------------:----------------:          -----: 

		  

Full key step upFull key step up
Half key step upHalf key step up
Half key step downHalf key step down
Full key step downFull key step down
hide glossary

See also:

tabs Detonautas - Outro lugar tabs Legião Urbana - Tempo Perdido(solo inicial ver.) tabs Paralamas do Sucesso - Meu erro tabs Legião Urbana - Pais e Filhos(solo) tabs Legião Urbana - Há Tempos tabs Nando Reis - Luz do Olhos
e-chords

Other versions:

tabs Legião Urbana - O Teatro Dos Vampiros
auto scroll beats size up size down change color hide chords drawings
tab show chords e-chords YouTube Clip e-chords hide all tabs e-chords go to top tab

share