Leftover Crack

Jesus Has A Place For Me Rock The 40oz

Leftover Crack

tabs

by  TAMAMOREIRA

save to print version add songbook text version e-mail correct tuner
chordsukulelecavacokeyboardtabbassdrumsharmonicaflute Guitar Pro
close

there isn't a video lesson for this song

chords

Jesus Has A Place For Me Rock The 40oz

	  		

Intro 
e|------------------------------------------------| 
B|------------------------------------------------| 
G|-9--9--9--9--5--5--5--5-------------------------| 
D|-9--9--9--9--5--5--5--5--5--5--5--5--5--5--5--5-| x 2 
A|-7--7--7--7--3--3--3--3--5--5--5--5--5--5--5--5-| 
E|-------------------------3--3--3--3--3--3--3--3-| 

e|------------------------------------------------| 
B|------------------------------------------------| 
G|-9--9--9--9--5--5--5--5-------------------------| 
D|-9--9--9--9--5--5--5--5--5--5--5--5--5--5--5--5-| 
A|-7--7--7--7--3--3--3--3--5--5--5--5--5--5--5--5-| 
E|----------------3--3--3--3--3--3--3--3--3--3--3-| 

e|------------------------|------------------------| 
B|------------------------|------------------------| 
G|-9--9--9--9--5--5--5--5-|-12-12-12-12-14-14-16~--| 
D|-9--9--9--9--5--5--5--5-|--x--x--x--x--x--x--x---| 
A|-7--7--7--7--3--3--3--3-|-10-10-10-10-12-12-14~--| 
E|----------------3--3--3-|------------------------| 


Verse 
e|-------------------------------------------------| 
B|-------------------------12-12-12-12-12-12-12-12-| 
G|-12-12-12-12-12-12-12-12-------------------------| 
D|-------------------------------------------------| 
A|-------------------------------------------------| 
E|-------------------------------------------------| 

e|-------------------------------------------------| 
B|-15-15-15-15-15-15-15-15-13-13-13-13-12-12-13-12-| 
G|-------------------------------------------------| 
D|-------------------------------------------------| 
A|-------------------------------------------------| 
E|-------------------------------------------------| 

e|-----------------15------| 
B|-----12--13--15----------| 
G|-12----------------------| 
D|-------------------------| 
A|-------------------------| 
E|-------------------------|   


Chorus 
e|------------------------------------------------| 
B|------------------------------------------------| 
G|-------------7--7--7--7--4--4--4--4--4--4--4--4-| 
D|-5--5--5--5--7--7--7--7--4--4--4--4--4--4--4--4-| 
A|-5--5--5--5--5--5--5--5--2--2--2--2--2--2--2--2-| 
E|-3--3--3--3-------------------------------------| 

e|------------------------------------------------| 
B|------------------------------------------------| 
G|-------------5--5--5--5--4--4--4--4--4--4--4--4-| 
D|-5--5--5--5--5--5--5--5--4--4--4--4--4--4--4--4-| 
A|-5--5--5--5--3--3--3--3--2--2--2--2--2--2--2--2-| 
E|-3--3--3--3-------------------------------------| 

Post Chorus 
e|--------------------------------------------------------| 
B|--------------------------------------------------------| 
G|-5--5-5-5-3--5--5-5--5--5-5--4--4-4-4-4--4--4-4--4--4-4-| 
D|-5--5-5-5-3--5--5-5--5--5-5--4--4-4-4-4--4--4-4--4--4-4-| 
A|-3--3-3-3-3--3--3-3--3--3-3--2--2-2-2-2--2--2-2--2--2-2-| 
E|--------------------------------------------------------| 
      . . . .     . .     . .     . . . .     . .     . . 

e|---------------------------------------------------------| 
B|---------------------------------------------------------| 
G|-5--5-5-5-5--5--5-5--5--5-5--4--4-4-4-4--5-5-5-5-7-7-7-7-| 
D|-5--5-5-5-5--5--5-5--5--5-5--4--4-4-4-4--x-x-x-x-x-x-x-x-| 
A|-3--3-3-3-3--3--3-3--3--3-3--2--2-2-2-2--3-3-3-3-5-5-5-5-| 
E|---------------------------------------------------------| 
      . . . .     . .     . .     . . . . 


Outro 
e|-------------|-------------| 
B|-------------|-------------| 
G|-4-4-4-4-5-7-|-4-4-4-4-5-7-| 
D|-4-4-4-4-5-7-|-4-4-4-4-5-7-| x3 
A|-2-2-2-2-3-5-|-2-2-2-2-3-5-| 
E|-------------|-------------| 
                 . . . . . . 

e|---------------------| 
B|---------------------| 
G|---------------------| 
D|--5~-----------5-----| 
A|--5~-----------5-----| 
E|--3~-----------3-----| 
		  

auto scroll beats size up size down change color hide chords drawings
tab show chords e-chords YouTube Clip e-chords hide all tabs e-chords go to top tab

share