save to print version add songbook text version e-mail correct tuner
chordsukulelecavacokeyboardtabbassdrumsharmonicaflute Guitar Pro
close

there isn't a video lesson for this song

chords

Honey Dove

	  		

Tuning: Standard 
  Em              Bm        Am              
e|----7h10p7------------------5---10/12--12-12-12\10--------------------------| 
B|--8-------8-------7h10p7----5---8-/10--10-10-10\8---------------------------| 
G|--7---------------7-----7---5-----------------------------------------------| 
D|--9---------------7---------5-----------------------------------------------| 
A|--7-------------------------7-----------------------------------------------| 
E|----------------7-----------------------------------------------------------| 
    Em          Bm                Am 
e|---------------7h10p7-------------------------------------------------------| 
B|--8h10p8-------7------7h10p7----5-------------------------------------------| 
G|--7------7-----7------7---------5-------------------------------------------| 
D|--9-----------------------------5-------------------------------------------| 
A|-7------------------------------7-------------------------------------------| 
E|--------------7-------------------------------------------------------------| 

Main Riffs (Bass does Am to D) 

  Am7       D (Bm9 on guit.)  Am     D             Am      D    
e|-5---5------9-9-----------------------9---------------------10/12--12-12-12\10--| 
B|-5---5---7--7-7-------------5--5---7--7--7h8p7------5---7---8-/10--10-10-10\8---| 
G|-5---5---7--7-7-------------5--5---7--7-------7-----5---7-----------------------| 
D|-5---5---7--7-7-------------5--5---7----------7-----5---7-----------------------| 
A|-7---7--/5------------------7--7---5----------------7---5-----------------------| 
E|-5------------------------5------------------------5----------------------------| 

Bridge @2:08 
  Am7    Bm7   Cm7   Dm7 
e|-5------7-----8------10----------------------------------------------------| 
B|-5------7-----8------10----------------------------------------------------| 
G|-5------7-----8------10----------------------------------------------------| 
D|-5------7-----8------10----------------------------------------------------| 
A|-7------9-----10-----12----------------------------------------------------| 
E|-5------7-----8------10----------------------------------------------------| 

Back to Main Riff 
		  

Full key step upFull key step up
Half key step upHalf key step up
Half key step downHalf key step down
Full key step downFull key step down
auto scroll beats size up size down change color hide chords drawings
tab show chords e-chords YouTube Clip e-chords hide all tabs e-chords go to top tab

share