Lee Fields And The Expressions

Do You Love Me Like You Say You Do

Lee Fields And The Expressions

tabs

by  ANG-LETRA

save to print version add songbook text version e-mail correct tuner
chordsukulelecavacokeyboardtabbassdrumsharmonicaflute Guitar Pro
close

there isn't a video lesson for this song

chords

Do You Love Me Like You Say You Do

	  		Verse 
     Fm          Ebm             Fm              Ebm           
e|----8\7/8-------6----6\5/6------8----8\7/8------6-----6\5/6----------------| 
B|----9\8\9-------7----7\6/7------9----9\8/9------7-----7\6/7----------------| 
G|----------------8--------------10---------------8--------------------------| 
D|---------------------------------------------------------------------------|   x2 
A|---------------------------------------------------------------------------| 
E|---------------------------------------------------------------------------| 
  
Chorus 
    Fm                  Ebm              Fm           Ebm 
e|--8--8--8--8--8-----6-6-6-6-6---6----8--8--8--8--8--8------6-6-6-6-6--6----| 
B|--9--9--9--9--9-----7-7-7-7-7---7----9--9--9--9--9--9------7-7-7-7-7--7----| 
G|--10-10-10-10-10----8-8-8-8-8---8----10-10-10-10-10-10-----8-8-8-8-8--8----| 
D|--10-10-10-10-10----8-8-8-8-8---8----10-10-10-10-10-10-----8-8-8-8-8--8----| 
A|--8--8--8--8--8-----6-6-6-6-6---6----8--8--8--8--8---8-----6-6-6-6-6--6----| 
E|---------------------------------------------------------------------------| 

  Hits @1:33 
 Fm            Ebm              Fm          Ebm 
e|---8--8------6----9--6---6----8--8--------6--9--6---6----------------------| 
B|---9--9------7---------9------9--9--------7-------9---9--6-----------------| 
G|--10-10------8----------------10-10-------8--------------------------------| 
D|--10-10------8----------------10-10-------8--------------------------------|  x2 
A|--8--8-------6----------------8--8--------6--------------------------------| 
E|---------------------------------------------------------------------------| 
		  

Full key step upFull key step up
Half key step upHalf key step up
Half key step downHalf key step down
Full key step downFull key step down
auto scroll beats size up size down change color hide chords drawings
tab show chords e-chords YouTube Clip e-chords hide all tabs e-chords go to top tab

share