Lee Dewyze

Blackbirds Song

Lee Dewyze

tabs

by  BOMBAXXX

save to print version add songbook text version e-mail correct tuner
chordsukulelecavacokeyboardtabbassdrumsharmonicaflute Guitar Pro
close

there isn't a video lesson for this song

chords

Blackbirds Song

	  		

Tuning: Drop D 

Intro/Verse/Chorus 
e|------------------------------------------------------------------------------------------| 
B|------3--------3--------3--------3----------5--------5-------3------3--------3-------3----| 
G|--------2--------2--------2--------2----------4-----------------------2-------------------| 
D|----0--------0--------0--------0-----0----0--------0-------0------0--------0-------0------| 
A|-------------------------------------------------------------------------------0h3--------| 
D|-0--------0--------3--------3--------3/5--------5------5/3-----0--------0-----------------| 


Chords strummed near the end of the song 
e|----------------------------| 
B|--3--------3--------5-------| 
G|--2--------2--------4-------| 
D|--x--------x--------x-------| 
A|--0--------3--------5-------| 
D|--0--------3--------5-------| 
		  

Full key step upFull key step up
Half key step upHalf key step up
Half key step downHalf key step down
Full key step downFull key step down
auto scroll beats size up size down change color hide chords drawings
tab show chords e-chords YouTube Clip e-chords hide all tabs e-chords go to top tab

share