Led Zeppelin

home > Led Zeppelin

You Shock Me Tab

Led Zeppelin

Difficulty: nolevelnolevel

tuner correct add songbook print version text version save to e-mail
chordsukulelecavacokeyboardtabbassdrumsharmonicsflute Guitar Pro
chords

You Shock Me

	   
(Willie Dixon/J.B. Lenoir) 
INTRO: 
E||-------------------------------|-----------------------------------------| 
B||-17-17-15-17--15-12------------|--17-17-15-17-15--12----12--------------| 
G||--------------------14-12------|----------------------14----14-12^-------| 
D||--------------------------14-|-----------------------------------14--| 
A||-------------------------------|-----------------------------------------| 
E||-------------------------------|-----------------------------------------| 
 
E||--------------------------|-------------//-----------|| 
B||--------------------------|-------------//-----------|| 
G||-------14-12^-------------|-------------//-----------|| 
D||-12-14--------14^-12-14-12|-------------//-----------|| 
A||--------------------------|-------------//-----------|| 
E||--------------------------|-------------//-----------|| 
 
VERSE: 
E||-----------------------------------|------------------------------------| 
B||-----------------------------------|------------------------------------| 
G||-----------------------------------|---------------12-------------------| 
D||--2--7--5--2--2--2--2--2---7--5--2-|------12---14-------14--------------| 
A||--2--7--5--2--2--4--4--2---5--5--2-|---14---------------------12------| 
E||--0--5--3--0--0--0--0--0---5--3--0-|------------------------------------| 
       You  Know You Shook Me,         You shook me all night long 
 
E||-------------------------|----------------------------------------------| 
B||-------------------------|----------------------------------------------| 
G||-------------------------|----------------12----------------------------| 
D||--2--7--5--2--2--2--2--2-|-------12--14--------14--12-14--------------| 
A||--2--7--5--2--2--4--4--2-|--14------------------------------------------| 
E||--0--5--3--0--0--0--0--0-|----------------------------------------------| 
                              You know you shook me baby 
 
E||-------------------------------|----------------------------------------| 
B||-------------------------------|----------------------------------------| 
G||--------------12---------------|----------------------------------------| 
D||------12---14------14----12--|--2--7--5--2--2--2--2--2----------------| 
A||-14----------------------------|--2--7--5--2--2--4--4--2----------------| 
E||-------------------------------|--0--5--3--0--0--0--0--0----------------| 
    You shook me all night long 
 
E||------------------------------------------------------------------------| 
B||--12-------12----15-12----------17-15-17-15-----------------------------| 
G||------14------14-------14-12--------------16-14-16-14--12^------------| 
D||---------------------------------------------------------------14-------| 
A||------------------------------------------------------------------------| 
E||------------------------------------------------------------------------| 
    You shook me so hard baby      Baby, baby  please      come home 
 
E||-----------------------| 
B||-----------------------|   
G||-------14-12^----------|    
D||----14--------14^-12-|    
A||-14--------------------|    
E||-----------------------| 
 
VERSE: 
E||-----------------------------------|------------------------------------| 
B||-----------------------------------|------------------------------------| 
G||-----------------------------------|---------------12-------------------| 
D||--2--7--5--2--2--2--2--2---7--5--2-|------12---14-------14--------------| 
A||--2--7--5--2--2--4--4--2---5--5--2-|---14---------------------12------| 
E||--0--5--3--0--0--0--0--0---5--3--0-|------------------------------------| 
        I have a bird that whistles,	and I have a bird that sings. 
 
E||-------------------------|----------------------------------------------| 
B||-------------------------|----------------------------------------------| 
G||-------------------------|----------------12----------------------------| 
D||--2--7--5--2--2--2--2--2-|-------12--14--------14--12-14--------------| 
A||--2--7--5--2--2--4--4--2-|--14------------------------------------------| 
E||--0--5--3--0--0--0--0--0-|----------------------------------------------| 
				I have a bird that whistles, 
 
E||-------------------------------|----------------------------------------| 
B||-------------------------------|----------------------------------------| 
G||--------------12---------------|----------------------------------------| 
D||------12---14------14----12--|--2--7--5--2--2--2--2--2----------------| 
A||-14----------------------------|--2--7--5--2--2--4--4--2----------------| 
E||-------------------------------|--0--5--3--0--0--0--0--0----------------| 
     and I have a bird that sings 
 
E||-----------------------------------------22^-22^-22^-22^-22^-22--19-------- 
B||------------------15--12--------------------------------------------22----- 
G||-14-14^-14-14^-14--------14--12------------------------------------------ 
D||--------------------------------------------------------------------------- 
A||--------------------------------------------------------------------------- 
E||--------------------------------------------------------------------------- 
    I have a bird  won't do nothin'    AAAAAHHH  (Lets see him do that now) 
 
E||-19--------------------------------------------------------19-| 
B||----22-19^-----------22-20-22-22-20^-----------------20-22----| 
G||-----------21-----21-----------------21-19-21-19--21----------| 
D||---------------21---------------------------------------------| 
A||--------------------------------------------------------------| 
E||--------------------------------------------------------------| 
                       Buy a diamond ring yeah! 
 
SOLOS 
 
E||--------------------------------------------------------------------------- 
B||--------------------------------------------------------------------------- 
G||--------------------------------------------------------------------------- 
D||--2-7-5-2-2-2-2-2-2-7-5-2-2-2-2-2-2-7-5-2-2-2-2-2-2-2-7-5-2-2-2-2-2-2-2-2-- 
A||--2-7-5-2-2-4-4-2-2-5-5-2-2-4-4-2-2-5-5-2-2-2-4-4-2-2-5-5-2-2-2-4-4-2-2-2-- 
E||--0-5-3-0-0-0-0-0-0-5-3-0-0-0-0-0-0-5-3-0-0-0-0-0-0-0-5-3-0-0-0-0-0-0-0-0-- 
 
E||--------------------------------------------------------------------------- 
B||--------------------------------------------------------------------------- 
G||--------------------------------------------------------------------------- 
D||-5-5-5-5-5-5-5-5-5-5-5-5-5-5-5-5-5-5-2-2-2-2-2-2-7-5-2-2-2-2-2-2-2-2-3-7-9- 
A||-7-5-7-7-9-9-7-7-5-7-3-7-9-9-7-3-7-3-2-2-2-4-4-2-5-5-2-2-2-4-4-2-2-2-3-7-9- 
E||-7-3-7-7-7-7-7-7-3-7-3-7-7-7-7-3-7-3-0-0-0-0-0-0-5-3-0-0-0-0-0-0-0-0-5-5-7- 
 
E||-7------------------------------------------------------------------------- 
B||-7------------------------------------------------------------------------- 
G||-8------------------------------------------------------------------------- 
D||-9---------------------7---------5-5---------7-7-5-5-4-4-2-2--------------- 
A||-9---------------------7-----5-7-----7-5-7-7-7-7-5-5-4-4-2-2--------------- 
E||-7---------------------5--5-7----------------5-5-3-3-2-2-0-0--------------- 
 
VERSE: 
E||-----------------------------------|------------------------------------| 
B||-----------------------------------|------------------------------------| 
G||-----------------------------------|---------------12-------------------| 
D||--2--7--5--2--2--2--2--2---7--5--2-|------12---14-------14--------------| 
A||--2--7--5--2--2--4--4--2---5--5--2-|---14---------------------12------| 
E||--0--5--3--0--0--0--0--0---5--3--0-|------------------------------------| 
     You  know you shook me, baby,         You shook me all night long. 
 
E||-------------------------|----------------------------------------------| 
B||-------------------------|----------------------------------------------| 
G||-------------------------|----------------12----------------------------| 
D||--2--7--5--2--2--2--2--2-|-------12--14--------14--12-14--------------| 
A||--2--7--5--2--2--4--4--2-|--14------------------------------------------| 
E||--0--5--3--0--0--0--0--0-|----------------------------------------------| 
     I know you really, really did, baby. 
 
E||-------------------------------|----------------------------------------| 
B||-------------------------------|----------------------------------------| 
G||--------------12---------------|----------------------------------------| 
D||------12---14------14----12--|--2--7--5--2--2--2--2--2----------------| 
A||-14----------------------------|--2--7--5--2--2--4--4--2----------------| 
E||-------------------------------|--0--5--3--0--0--0--0--0----------------| 
    I said you shook me.           You shook me all night long. 
 
E||-------------------------------------------15^-15-15^-12------------------- 
B||---------------------------------15^-12-15--------------------------------- 
G||--14^-14-12-14-12-14-12-14^------------------------------------------------ 
D||--------------------------------------------------------------------------- 
A||--------------------------------------------------------------------------- 
E||--------------------------------------------------------------------------- 
     You   shook   me   soo         hard   baby 
 
E||---------------15^-15^-----------------15^-15^15----------15^-15-12--12---- 
B||-------------------------------------------------------------------15--15-- 
G||--------------------------------------------------------------------------- 
D||--------------------------------------------------------------------------- 
A||--------------------------------------------------------------------------- 
E||--------------------------------------------------------------------------- 
        Babe....               Ah Ahh...              Ah Ahhhh... 
 
E||--------15^-15-12--12-------------17^-12-12-------17^v^-12-12-------------- 
B||-----------------15--15---------------------------------------------------- 
G||--------------------------------------------------------------------------- 
D||--------------------------------------------------------------------------- 
A||--------------------------------------------------------------------------- 
E||--------------------------------------------------------------------------- 
    Ah Ahhhhh...              Ah Ahhhh...       Ah Ahhh... 
 
    Coda: 
E||-----------------------------------------------------12-15-15^v^v^v^------- 
B||-----------------------------------------------12-15----------------------- 
G||---14^v^v^----------------------------------------------------------------- 
D||--------------------------------------------------------------------------- 
A||--------------------------------------------------------------------------- 
E||--------------------------------------------------------------------------- 
                  You shook me all night long... 
 
E||-15-12----12--------------------------------------------|| 
B||-------15-------------------------------------------------|| 
G||----------------------------------------------------------|| 
D||------------------2/72-----------------------------------|| 
A||------------------2/72-----------------------------------|| 
E||------------------0/5-----------------------------------|| 
                  You shook me all night long. 
 
 
_______________________________________________________ 
Contribuição: Rodolfo Rodrigues dos Santos(rudy_harrison@msn.com) 
	  

there isn't a video lesson for this song

request
Search
auto scroll beats size up size down change color hide chords drawings
tab show chords e-chords YouTube Clip e-chords hide all tabs e-chords go to top tab