Led Zeppelin

home > Led Zeppelin

Whotta Lotta Of Love Tab

Led Zeppelin

Difficulty: AdvancedAdvanced

by oldieNwild

tuner correct add songbook print version text version save to e-mail
chordsukulelecavacokeyboardtabbassdrumsharmonicsflute Guitar Pro
chords

Whotta Lotta Of Love

  		Led Zeppelin-whotta lotta of love                   X2:por dos veces 
   
       
        E5       E5     E5      E5        E5     E5      E5 
        X2       X2      X2      X2        X2      X2       X2                        E5 
 E1----0---------0--------0--------0---------0--------0---------0-------------------------0---- 
 B2----0---------0--------0--------0---------0--------0---------0-------------------------0---- 
 G3----9---------9--------9--------9---------9--------9---------9-------------------------9---- 
 D4----9---------9--------9--------9---------9--------9---------9-------------------------9---- 
 A5----7---------7--------7--------7---------7--------7---------7-----------5------5----7----- 
 E6------0-0-0---0-0-0---0-0-0---0-0-0---0-0-0---0-0-0---------7-------7--------0----- 

         D5           E5       
  E1---0-0-0-0-0--0------------------------------------------------------------------------------ 
  B2---0-0-0-0-0--0------------------------------------------------------------------------------ 
  G3---7-7-7-7-7--9------------------------------------------------------------------------------ 
  D4---7-7-7-7-7--9------------------------------------------------------------------------------ 
  A5---5-5-5-5-5--7------------------------------------------------------------------------------ 
  E6---0-0-0-0-0--0------------------------------------------------------------------------------ 
         whota lotta of love 
	  

Full key step upFull key step up
Half key step upHalf key step up
Half key step downHalf key step down
Full key step downFull key step down
Search Paypal
auto scroll beats size up size down change color hide chords drawings
tab show chords e-chords YouTube Clip e-chords hide all tabs e-chords go to top tab