Led Zeppelin

home > Led Zeppelin

We're Gonna Groove Tab

Led Zeppelin

Difficulty: ExpertExpert

by miss%2Dtyler

tuner correct add songbook print version text version save to e-mail
chordsukulelecavacokeyboardtabbassdrumsharmonicsflute Guitar Pro
chords

We're Gonna Groove

Year: 1982 - Album: Mothership 2CD/1DVD

	   
                                    7/8 time         4/4 time 
E|----------------|---------------3|3333-3-33-------|----33-3-3-33---| 
B|----------------|---------------3|3333-3-33-------|----33-3-3-33---| 
G|----------------|---------------1|1111-1-11-------|----11-1-1-11---| 
D|----------------|---------------2|2222-2-22-------|----22-2-2-22---| 
A|----------------|----------------|----------------|----------------| 
E|----------------|----------------|----------------|0---------------| 
 
E|-3333333-3-3----|----33-3-3-33---|-3333333-3-33---|--3333-33--3----| 
B|-3333333-3-3----|--3333-3-3-33---|-3333333-3-33---|--3333-33--3----| 
G|-1111111-1-1----|--1111-1-1-11---|-1111111-1-11---|--1111-11--1----| 
D|-2222222-2-2----|--2222-2-2-22---|-2222222-2-22--2|--2222-22--2---2| 
A|----------------|----------------|----------------|----------------| 
E|----------------|----------------|----------------|----------------| 
 
E|7--8--10--------|--3333-33--3----|3--1------------|--3333-33--3----| 
B|5--6--8--------5|--3333-33--3----|5--3--1---------|--3333-33--3----| 
G|----------------|--1111-11--1----|4--4--2---------|--1111-11--1----| 
D|----------------|--2222-22--2----|2-----2--------2|--2222-22--2---2| 
A|----------------|----------------|----------------|----------------| 
E|----------------|----------------|----------------|----------------| 
 
E|7--8--10--------|--3333-33--3----|3--1------------|----------------| 
B|5--6--8--------5|--3333-33--3----|5--3--1---------|1--0--1---------| 
G|----------------|--1111-11--1----|4--4--2---------|2--0--2---------| 
D|----------------|--2222-22--2----|2-----2---------|2-----2---------| 
A|----------------|----------------|----------------|----------------| 
E|----------------|----------------|----------------|----------------| 
 
E|----------------|----------------|----------------| 
B|1--0--1---------|1--0--1---------|1--0--1---------| 
G|2--0--2---------|2--0--2---------|2--0--2---------| 
D|2-----2---------|2-----2---------|2-----2---------| 
A|----------------|----------------|----------------| 
E|----------------|----------------|----------------| 2X 
 
E|--3-33-333-3----|--3-33-333-3----|----33-3-3-3----|--3333-3-3-3----| 
B|--3-33-333-3----|--3-33-333-3----|----33-3-3-3----|--3333-3-3-3----| 
G|--1-11-111-1----|--1-11-111-1----|----11-1-1-1----|--1111-1-1-1----| 
D|--2-22-222-2----|--2-22-222-2----|----22-2-2-2---2|--2222-2-2-2----| 
A|----------------|----------------|----------------|----------------| 
E|----------------|----------------|----------------|----------------| 
 
E|--3-33-3333-3---|7--8--10--------|--3333-33--3----|3--1------------| 
B|--3-33-3333-3---|5--6--8---------|--3333-33--3----|5--3--1---------| 
G|--1-11-1111-1---|----------------|--1111-11--1----|4--4--2---------| 
D|--2-22-2222-2--2|---------------2|--2222-22--2----|2-----2--------2| 
A|----------------|----------------|----------------|----------------| 
E|----------------|----------------|----------------|----------------| 
 
E|--3333--33-3----|7--8--10--------|--3333-33--3----|3--1------------| 
B|--3333--33-3----|5--6--8---------|--3333-33--3----|5--3--1---------| 
G|--1111--11-1----|----------------|--1111-11--1----|4--4--2---------| 
D|--2222--22-2---2|----------------|--2222-22--2----|2-----2---------| 
A|----------------|----------------|----------------|----------------| 
E|----------------|----------------|----------------|----------------| 
 
E|--3-33-333-3----|--3-33-333-3----|--3-33-333-3----|--3-33-333-3----| 
B|--3-33-333-3----|--3-33-333-3----|--3-33-333-3----|--3-33-333-3----| 
G|--1-11-111-1----|--1-11-111-1----|--1-11-111-1----|--1-11-111-1----| 
D|--2-22-222-2---2|--2-22-222-2---2|--2-22-222-2----|--2-22-222-2----| 
A|----------------|----------------|----------------|----------------| 
E|----------------|----------------|----------------|----------------| 2X 
 
E|--3-33-333-3----|--3-33-333-3----|--3-33-333-3----|--3-33-333-3----| 
B|--3-33-333-3----|--3-33-333-3----|--3-33-333-3----|--3-33-333-3----| 
G|--1-11-111-1----|--1-11-111-1----|--1-11-111-1----|--1-11-111-1----| 
D|--2-22-222-2---2|--2-22-222-2----|--2-22-222-2----|--2-22-222-2----| 
A|----------------|----------------|----------------|----------------| 
E|----------------|----------------|----------------|----------------| 
 
E|7--8--10--------|--3333-33--3----|3--1------------|--3333--33-3----| 
B|5--6--8---------|--3333-33--3----|5--3--1---------|--3333--33-3----| 
G|----------------|--1111-11--1----|4--4--2---------|--1111--11-1----| 
D|---------------2|--2222-22--2----|2-----2--------2|--2222--22-2---2| 
A|----------------|----------------|----------------|----------------| 
E|----------------|----------------|----------------|----------------| 
 
E|7--8--10--------|--3-33-333-3----|3--1------------|----------------| 
B|5--6--8---------|--3-33-333-3----|5--3--1---------|1--0--1---------| 
G|----------------|--1-11-111-1----|4--4--2---------|2--0--2---------| 
D|---------------2|--2-22-222-2---2|2-----2---------|2-----2---------| 
A|----------------|----------------|----------------|----------------| 
E|----------------|----------------|----------------|----------------| 
 
E|----------------|----------------|----------------|33--33--3--3-3--| 
B|1--0--1---------|1--0--1---------|1--0--1---------|33--33--3--3-3--| 
G|2--0--2---------|2--0--2---------|2--0--2---------|11--11--1--1-1--| 
D|2-----2---------|2-----2---------|2-----2---------|22--22--2--2-2--| 
A|----------------|----------------|----------------|----------------| 
E|----------------|----------------|----------------|----------------| 
 
E|----33--3-33-333|--3333--3--3----|-33333-3-3-333--|----------------| 
B|----33--3-33-333|--3333--3--3----|-33333-3-3-333--|1--0--1---------| 
G|----11--1-11-111|--1111--1--1----|-11111-1-1-111--|2--0--2---------| 
D|2---22--2-22-222|--2222--2--2----|-22222-2-2-222-2|2-----2---------| 
A|----------------|----------------|----------------|----------------| 
E|----------------|----------------|----------------|----------------| 
 
E|----------------|----------------|----------------|4---1-----------| 
B|1--0--1---------|1--0--1---------|1--0--1---------|5---3-----------| 
G|2--0--2---------|2--0--2---------|2--0--2---------|4---2---6-------| 
D|2-----2---------|2-----2---------|2-----2---------|2-------7-------| 
A|----------------|----------------|----------------|--------4-------| 
E|----------------|----------------|----------------|----------------| 
 

	  

there isn't a video lesson for this song

request
Search
auto scroll beats size up size down change color hide chords drawings
tab show chords e-chords YouTube Clip e-chords hide all tabs e-chords go to top tab