Led Zeppelin

home > Led Zeppelin

The Lemon Song (ver. 2) Tab

Led Zeppelin

Difficulty: nolevelnolevel

tuner correct add songbook print version text version save to e-mail
chordsukulelecavacokeyboardtabbassdrumsharmonicsflute Guitar Pro
chords

The Lemon Song (ver. 2)

  		Words and Music by Jimmy Page, Robert Plant, John Paul Jones & John Bonham 
Transcribed by www.mikesguitarsite.co.uk 
 
Gtr I (E A D G B E) - 'Jimmy Page - Rhythm / Lead w/dist' 
Gtr II (E A D G B E) - 'Jimmy Page - Lead w/dist' 
 
 Intro 
  Q=92 
 4/4 
  Gtr I 
                     ~    ~~~~~~~ 
|------------------|------------------| 
|-0-0-0-0-0--------|-8----8-(8)s14\---| 
|------------------|-7--x-7-(7)s13\---| 
|------------------|-6--x-6-(6)s12\---| 
|------------------|-7--x-7-(7)s13\---| 
|-0-0-4-4-5-5-7\-0-|------------------| 
 
 
                ~           ~~~~~~     ~~ 
|-------------------|-------------------------------| 
|---0---0-0---------|-------8-(8)-----12----12-12\--| 
|-------------------|-7-x-x-7-(7)-----12----12-12\--| 
|-------------------|-6-x-x-6-(6)-/12-12----12-12\--| 
|-------------------|-7-x-x--------------14---------| 
|-0-0-3s4-4-5-5-7-0-|-------------------------------| 
 
 
                      ~ 
|-------------------|----------------------------------| 
|-------0-0-0-0-0---|-8-----8-(8)\-------3-------------| 
|-------------------|-7-x-x-7-(7)\-0-2h4---0-4p2p0-----| 
|-------------------|-6-x-x-6-(6)\-----------------2p0-| 
|-------------------|-7-x-x-7-(7)\---------------------| 
|-0-0-3s4-4-5-5-7S0-|----------------------------------| 
 
 
|---------------------|---------------------|| 
|-----------0-0-(0)---|-8-----8-(8)-(8)/----|| 
|---------------------|-7-x-x-7-(7)-(7)/----|| 
|---------------------|-6-x-x-6-(6)-(6)/----|| 
|---------------------|-7-x-x-7-(7)-(7)/----|| 
|-0-0-3s4-4-5-5--7\-0-|---------------------|| 
 
 
 Verse 1 
                       ~ 
|--------------------|-------------------|--------------------| 
|-------0-0-0-0-0----|------8-(8)--(8)\--|-------0-0-0-0------| 
|--------------------|-7--x-7-(7)--(7)\--|--------------------| 
|--------------------|-6--x-6-(6)--(6)\--|--------------------| 
|--------------------|-7--x-7-(7)--(7)\--|--------------------| 
|-0-0-3s4-4-5-5-7\-0-|-------------------|-0-0-3s4-4-5-5-7\-0-| 
 
 
  ~                      ~                                              ~ 
|--------------------------|--------------------|---------------------------| 
|-8----8-(8)---------------|--------------------|---------------------------| 
|-7--x-7-(7)---------------|-----------0-0------|-2-------------------------| 
|-6--x-6-(6)-----5-(5)-----|--------------------|-2----------2--(2)---------| 
|-7--x-7-(7)-5h7-------5h7-|-0-0-3s4-4-5-5-7\-0-|-0--x----------------------| 
|--------------------------|--------------------|----x-3b5==(3)-(3)r(3)-3---| 
 
 
                       ~    ~~~~~~~          ~ 
|--------------------|---------------------|-------------------------------| 
|-------0-0-0-0------|-8-x--8-(8)\---------|------------3-----3-----3------| 
|--------------------|-7-x--7-(7)\---------|--------2-----2-----2-----2----| 
|--------------------|-6-x--6-(6)\---------|-------------------------------| 
|--------------------|-7-x--7-(7)\----0--1-|-2--(2)---2-----2-----2-----0--| 
|-0-0-3s4-4-5-5-7\-0-|-------------4-------|-------------------------------| 
 
 
                                        Gtrs I, II 
         ~~~~~~                                            ~~~~~~~ 
|-----------------------------------|--------------------------------------------------| 
|-2-----/5-(5)-----------8-----10---|----15b17==(15)-(15)-15r(15)-15-12-12----12-------| 
|---0----------0---0-(0)---0------0-|--------------------------------------14----12b13-| 
|-----------------------------------|--------------------------------------------------| 
|-----0----------0-----------0------|--------------------------------------------------| 
|-----------------------------------|-0------------------------------------------------| 
 
 
                     ~~~~~~~ 
|-------------------------------------------|| 
|-------------------------------------------|| 
|-------------12----------------------------|| 
|-14-12-13-14----14-12-(12)----------12-----|| 
|---------------------------12-13-14----14\-|| 
|-------------------------------------------|| 
 
 
 Verse 2 
  Gtr I 
                       ~ 
|--------------------|-------------------|------------------| 
|-------0-0-0--------|-8----8-(8)--(8)/--|-----0------------| 
|--------------------|-7--0-7-(7)--(7)/--|------------------| 
|--------------------|-6--0-6-(6)--(6)/--|------------------| 
|--------------------|-7----7-(7)--(7)/--|------------------| 
|-0-0-3s4-4-5-5-7\-0-|-------------------|-0-0-4-4-5-5-7\-0-| 
 
 
  ~                                                                      ~ 
|---------------------------------|------------------|-----------------------| 
|-8----8-(8)\-------3-------------|---------0-0------|-----------------------| 
|-7--0-7-(7)\-0-2h4---2h4p2p0-----|------------------|-2---------------------| 
|-6--0-6-(6)\-----------------2p0-|------------------|-2----2----(2)---------| 
|-7----7-(7)\---------------------|---0-4-4-5-5-7\-0-|-0--x------------------| 
|---------------------------------|-0----------------|----x-3b5==(3)r(3)-3---| 
 
 
                       ~    ~~~~~~~          ~ 
|--------------------|---------------------|--------------------------| 
|-------0-0-0-0-0----|-8----8-(8)\---------|----3-----3-----3-----3---| 
|--------------------|-7--0-7-(7)\---------|------2-----2-----2---2---| 
|--------------------|-6--0-6-(6)\---------|--------------------------| 
|--------------------|-7----7-(7)\----0--1-|-2------2-----2-----2---0-| 
|-0-0-3s4-4-5-5-7\-0-|-------------4-------|--------------------------| 
 
 
|--------------0-(0)---------| 
|-------2-----/5-(5)---5-----| 
|-----0---0----------------0-| 
|----------------------------| 
|-(0)-------0--------0---0---| 
|----------------------------| 
 
 
                                                   Faster Q=150 
                      ~~~~~ 
|--------------------------------------------------|------------|| 
|---15b17==(15)-(15)-15-15-15r-15-12----12---------|------------|| 
|------------------------------------14----12b12.5-|------------|| 
|--------------------------------------------------|-14\--------|| 
|--------------------------------------------------|------------|| 
|-0------------------------------------------------|------------|| 
 
 
 Guitar Solo 
  Gtr II 
|-16-16\---------------16-------| 
|-15-15\------------------------| 
|-16-16\--x-x--x--x-16----16-14-| 
|-------------------------------| 
|-------------------------------| 
|-------------------------------| 
| 
| Gtr I 
|-------------------------------| 
|-------------------------------| 
|--9--9-------(9)-------9--9--7-| 
|--9--9-------(9)-------9--9--7-| 
|--7--7-------(7)-------7--7--7-| 
|-------------------------------| 
 
 
                                  ~~~~~~~~~ 
|-12-12\-----------12----14-|-15-16---(16)----16----14--| 
|---------------------------|---------------------------| 
|-13-13\-------/13----13-14-|-15-16---(16)-16----16-14--| 
|---------------------------|---------------------------| 
|---------------------------|---------------------------| 
|---------------------------|---------------------------| 
| 
|---------------------------|---------------------------| 
|---------------------------|---------------------------| 
|--9--9--(9)----------------|--9--9----(9)-----9--9--7--| 
|--9--9--(9)----------------|--9--9----(9)-----9--9--7--| 
|--7--7--(7)----------------|--7--7----(7)-----7--7--7--| 
|---------------------------|---------------------------| 
 
 
|-12-12\----------17-------| 
|--------------------------| 
|-13-13\-------18----18-19-| 
|--------------------------| 
|--------------------------| 
|--------------------------| 
| 
|--------------------------| 
|--------------------------| 
|--9--9----(9)-----9--9----| 
|--9--9----(9)-----9--9--0-| 
|--7--7----(7)-----7--7--0-| 
|--------------------------| 
 
 
      ~~~~~~~~~ 
|-21-21---(21)----21----19-|-17-17\----------12----14-| 
|--------------------------|--------------------------| 
|-21-21---(21)-21----21-19-|-18-18\-------13----13-14-| 
|--------------------------|--------------------------| 
|--------------------------|--------------------------| 
|--------------------------|--------------------------| 
| 
|--------------------------|--------------------------| 
|--------------------------|--------------------------| 
|--2--2----(2)-----2--2--0-|--2--2----(2)-------------| 
|--2--2----(2)-----2--2--0-|--2--2----(2)-------------| 
|--0--0----(0)-----0--0--0-|--0--0----(0)-------------| 
|--------------------------|------------------------0-| 
 
 
         ~~~~~~~~ 
|-16-16-16--(16)----16----14-|-12-12\-----------------| 
|----------------------------|------------------------| 
|-15-16-16--(16)-16----16-14-|-13-13\------6s20\------| 
|----------------------------|------------------------| 
|----------------------------|------------------------| 
|----------------------------|------------------------| 
| 
|----------------------------|------------------------| 
|----------------------------|------------------------| 
|--9--9------(9)-----9--9--7-|--9--9--(9)--------9\---| 
|--9--9------(9)-----9--9--7-|--9--9--(9)--------9\---| 
|--7--7------(7)-----7--7--7-|--7--7--(7)--------7\-0-| 
|----------------------------|----------------------0-| 
 
 
|----17----17----17-(17)----17-----17-| 
|-16----16----16---------16----16-----| 
|-------------------------------------| 
|-------------------------------------| 
|-------------------------------------| 
|-------------------------------------| 
| 
|-------------------------------------| 
|-------------------------------------| 
|--4--------4---------4---------4\----| 
|--4--------4---------4---------4\----| 
|--2--------2---------2---------2\----| 
|-------------------------------------| 
 
 
|----15----15----15-(15)----15----15-| 
|-14----14----14---------14----14----| 
|------------------------------------| 
|------------------------------------| 
|------------------------------------| 
|------------------------------------| 
| 
|------------------------------------| 
|------------------------------------| 
|--2--------2--2-----(2)-----2--2----| 
|--2--------2--2-----(2)-----2--2----| 
|--0--------0--0-----(0)-----0--0----| 
|----------------------------------0-| 
 
 
|---10-----10---10-(10)---10---10-|---5-----5---5-------------------|| 
|-9------9----9---------9----9----|-4-----4---4---/12-12------------|| 
|---------------------------------|-----------------------14-14-12--|| 
|---------------------------------|---------------------------------|| 
|---------------------------------|---------------------------------|| 
|---------------------------------|---------------------------------|| 
| 
|---------------------------------|---------------------------------|| 
|---------------------------------|---------------------------------|| 
|-9----9----9--------9-----9-9----|---------8---------(8)-----------|| 
|-9----9----9--------9-----9-9----|---------7---------(7)-----0-----|| 
|-7----7----7--------7-----7-7----|-9---9---9---------(9)-----0-----|| 
|---------------------------------|-7---7---7---------(7)-----------|| 
 
 
   ~~ 
|---------------------------------| 
|---------------/12---12----------| 
|-12---14\---------------14-14-12-| 
|---------------------------------| 
|---------------------------------| 
|---------------------------------| 
| 
|---------------------------------| 
|---------------------------------| 
|--9-9------(9)-----9--9-----7----| 
|--9-9------(9)-----9--9-----7----| 
|--7-7------(7)-----7--7-----7----| 
|---------------------------------| 
 
 
                                                    ~~ 
|--------------------------------(12)------------|----------------------------| 
|---------------------------------12-------------|--------------12---12-------| 
|-14b16==(14)r---12b12.5----------------16-14-12-|-12---14--------------14-12-| 
|------------------------14-(14)-----------------|----------------------------| 
|------------------------------------------------|----------------------------| 
|------------------------------------------------|----------------------------| 
| 
|------------------------------------------------|----------------------------| 
|------------------------------------------------|----------------------------| 
|----------9---9-------------(9)------9--9-----7-|--9-9-----(9)----9--9-----7-| 
|----------9---9-------------(9)------9--9-----7-|--9-9-----(9)----9--9-----7-| 
|----------7---7-------------(7)------7--7-----7-|--7-7-----(7)----7--7-----7-| 
|------------------------------------------------|----------------------------| 
 
 
|----------------12--------------------12----------------------12-| 
|-------------------15p12-----------------15p12-------------------| 
|-14b16==(14)r------------14b16==(14)r----------14b16==(14)r------| 
|-----------------------------------------------------------------| 
|-----------------------------------------------------------------| 
|-----------------------------------------------------------------| 
| 
|-----------------------------------------------------------------| 
|-----------------------------------------------------------------| 
|----------9---9------------------(9)---------9----------9---7----| 
|----------9---9------------------(9)---------9----------9---7----| 
|----------7---7------------------(7)---------7----------7---7----| 
|-----------------------------------------------------------------| 
 
 
|--------------------12--------------------12-------------|-------------------------------------------------| 
|-15p12-----------------15p12-----------------15p12-------|-------------------------------------------------| 
|-------14b16==(14)r----------14b16==(14)r----------14p12-|-------------------------------------------------| 
|---------------------------------------------------------|-14p12-------------------------------------------| 
|---------------------------------------------------------|-------14p12s10----10h12-10-13p10----10-12S14----| 
|---------------------------------------------------------|----------------12----------------12-------------| 
| 
|---------------------------------------------------------|-------------------------------------------------| 
|---------------------------------------------------------|--2-----2----------------------------------------| 
|--9-----9----------------------------(9)---9--9-----0----|--2-----2-----------2p====0----------------------| 
|--7-----7----------------------------(7)---7--7-----0----|--2-----2----------------------------------------| 
|--0-----0----------------------------(0)---0--0-----0----|--0-----0----------------------------------------| 
|---------------------------------------------------------|-------------------------------------------------| 
 
 
|----------------------------------------------------------| 
|----------------------------------------------------------| 
|------------12-14-12-14b15p12-14-14b15==(14)r-12----12----| 
|---12-13-14--------------------------------------14----14-| 
|----------------------------------------------------------| 
|----------------------------------------------------------| 
| 
|----------------------------------------------------------| 
|----------------------------------------------------------| 
|-9--9-----9-----9----(9)-------9----------9----9-----7----| 
|-9--9-----9-----9----(9)-------9----------9----9-----7----| 
|-7--7-----7-----7----(7)-------7----------7----7-----7----| 
|-0--0-----0-----0----(0)-------0----------0----0-----0----| 
 
 
                                          ~~~~ 
|----------------------12--------------------|-------------------------------------------| 
|-------------------12----15--15b17r====(15)-|--------------15-----------------15-(15)---| 
|-12-14b16==(14)r----------------------------|-14b15==(14)r----14-14b15==(14)r-----------| 
|--------------------------------------------|-------------------------------------------| 
|--------------------------------------------|-------------------------------------------| 
|--------------------------------------------|-------------------------------------------| 
| 
|--------------------------------------------|-------------------------------------------| 
|--------------------------------------------|-------------------------------------------| 
|--9--------------9-------(9)--9----9-9------|----------4--------------------------(4)---| 
|--9--------------9-------(9)--9----9-9---0--|----------4--------------------------(4)---| 
|--7--------------7-------(7)--7----7-7---0--|----------2--------------------------(2)-0-| 
|--0--------------0-------(0)--0----0-0---0--|-------------------------------------------| 
 
 
                                     ~~~~~ 
|----------------------------------------------| 
|--------------15------------------------------| 
|-13b15==(13)r----13-13-----13b16==(13)r-------| 
|----------------------------------------------| 
|----------------------------------------------| 
|----------------------------------------------| 
| 
|----------------------------------------------| 
|------------------2----2-2--------------2-2---| 
|----------2-------2----2-2--------------2-2---| 
|----------2-------2----2-2--------------2-2---| 
|----------0-------0----0-0--------------0-0-0-| 
|--------------------------------------------0-| 
 
 
                                                     ~~ 
|-------------------------------------------------|--------------------------------|| 
|----------------15-------------------------------|------------------17b20==(17)r--|| 
|-13b16==(13)r------14b16==(14)r-14-(14)-12----14-|-12---(12)\---------------------|| 
|-------------------------------------------14----|--------------------------------|| 
|-------------------------------------------------|--------------------------------|| 
|-------------------------------------------------|--------------------------------|| 
| 
|-------------------------------------------------|--------------------------------|| 
|-------------------------------------------------|--4-4--------(4)-----------4/---|| 
|----------------------------9----9---9---9--9--0-|---------------------------2/---|| 
|----------9---9-------------9----9---9---9--9--0-|--4-4--------(4)-----------4/---|| 
|----------7---7-------------7----7---7---7--7--0-|--2-2--------(2)-----------2/---|| 
|----------0---0----------------------------------|--------------------------------|| 
 
 
|-----------------------------------------|------------------------------------------------| 
|-17b20---17b20---17b20==(17)r-----17b20==|=(17)r-----17b21====(17)r---17b20r==(17)-17pb19-| 
|-----------------------------------------|------------------------------------------------| 
|-----------------------------------------|------------------------------------------------| 
|-----------------------------------------|------------------------------------------------| 
|-----------------------------------------|------------------------------------------------| 
| 
|-----------------------------------------|------------------------------------------------| 
|--9----9--9-------9-------9---9-9--------|---9---9-9--9-----9---9---9--9----9---9---9-----| 
|--7----7--7----x--7-------7---7-7--x-----|---7---7-7--7-----7---7---7--7----7---7---7-----| 
|---------------x-------------------x-----|------------------------------------------------| 
|---------------x-------------------x-----|------------------------------------------------| 
|-----------------------------------------|------------------------------------------------| 
 
 
                                                     ~~ 
|------------------------------------------------------| 
|-17pb21-17pb19---17pb21---17pb19-17b21-------15b17-15-| 
|------------------------------------------------------| 
|------------------------------------------------------| 
|------------------------------------------------------| 
|------------------------------------------------------| 
| 
|------------------------------------------------------| 
|--9------9-----9--9-----9--9------9----9-9-9--9-----9-| 
|--7------7-----7--7-----7--7------7----7-7-7--7-----7-| 
|------------------------------------------------------| 
|------------------------------------------------------| 
|------------------------------------------------------| 
 
 
    ~~~~ 
|----------------------15p12-----15p12-|----15p12------15p12----15p12------15p12-| 
|-(15)-----x---x---x---------15--------|-15-------15---------15-------15---------| 
|--------------------------------------|-----------------------------------------| 
|--------------------------------------|-----------------------------------------| 
|--------------------------------------|-----------------------------------------| 
|--------------------------------------|-----------------------------------------| 
| 
|--------------------------------------|-----------------------------------------| 
|---9--9-9-9-9-9-9-9-9--9--9--9\-------|------------------------------------0----| 
|---7--7-7-7-7-7-7-7-7--7--7--7\-------|--6--6-----6b7--6-----6--6--6--6b7--0----| 
|--------------------------------------|--5--5-----5----5-----5--5--5--5----0----| 
|--------------------------------------|-----------------------------------------| 
|--------------------------------------|-----------------------------------------| 
 
 
|----15p12------16p0----15p12------15p12-| 
|-15-------15--------15-------15---------| 
|----------------------------------------| 
|----------------------------------------| 
|----------------------------------------| 
|----------------------------------------| 
| 
|----------------------------------------| 
|----------------------------------------| 
|--6--6-----6b7--0----6--6-----6b7--0----| 
|--5--5-----5----0----5--5-----5----0----| 
|------------------------------0----0----| 
|----------------------------------------| 
 
 
|----15p12----15p12------15p12----15p12-| 
|-15-------15-------15---------15-------| 
|---------------------------------------| 
|---------------------------------------| 
|---------------------------------------| 
|---------------------------------------| 
| 
|---------------------------------------| 
|--9--9--9--9--x--x--9-9--9--9--9--x--x-| 
|--7--7--7--7--x--x--7-7--7--7--7--x--x-| 
|--------------x--x----------------x--x-| 
|--------------x--x----------------x--x-| 
|---------------------------------------| 
 
 
|----15p12------15p12------12---15-15b18====|=(15)r-15-15b19-15b19==(15)----15r==| 
|-15-------15---------15--------------------|------------------------------------| 
|-------------------------------------------|------------------------------------| 
|-------------------------------------------|------------------------------------| 
|-------------------------------------------|------------------------------------| 
|-------------------------------------------|------------------------------------| 
| 
|-------------------------------------------|------------------------------------| 
|--9--9--9--9-9--9--9--9-9--9-9--9--0-----0-|------------------------------------| 
|--7--7--7--7-7--7--7--7-7--7-7--7--0-----0-|---4-------4-------------4---4------| 
|-----------------------------------0-----0-|---4-------4-------------4---4------| 
|-------------------------------------------|---2-------2-------------2---2--0---| 
|-------------------------------------------|------------------------------------| 
 
 
                                  ~~~~~~~ 
|-(15)-12----15---12------15-|---12-(12)---(12)\------| 
|---------14---------14------|------------------------| 
|----------------------------|------------------------| 
|----------------------------|------------------------| 
|----------------------------|------------------------| 
|----------------------------|------------------------| 
| 
|----------------------------|------------------------| 
|----------------------------|------------------------| 
|---2------2----2-------2----|-9--9---9--9---9----9-9-| 
|---2------2----2-------2----|-9--9---9--9---9----9-9-| 
|---0------0----0-------0--5S|=7--7---7--7---7----7-7-| 
|----------------------------|------------------------| 
 
 
                                H.=H 
|----------------12--------------------------------------|| 
|-------------------15p12--------------------------------|| 
|-14b16==(14)r------------14p12--------------------------|| 
|-------------------------------14p12--------------------|| 
|-------------------------------------14p12s10----12-----|| 
|----------------------------------------------12----12--|| 
| 
|--------------------------------------------------------|| 
|--------------------------------------------------------|| 
|----------9---9-----9-----9-----9-----9-----9-----------|| 
|----------9---9-----9-----9-----9-----9-----9-----------|| 
|----------7---7-----7-----7-----7-----7-----7-----------|| 
|--------------------------------0-----0-----0-----------|| 
 
 
 Pre-Verse 
  A Tempo Q=92 
|----------------------|----------------------------|--------------------| 
|----------------------|----------------------------|--------------------| 
|----------------------|----------------------------|--------------------| 
|----------------------|----------------------------|--------------------| 
|-10\------------------|----------------------------|--------------------| 
|----------------------|----------------------------|--------------------| 
| 
|             ~          ~                                      ~~~~ 
|----------------------|----------------------------|--------------------| 
|----------------------|-8----8-(8)----12----12-12\-|-------0-0-0-0-0----| 
|----------------------|-7--x-7-(7)----12----12-12\-|--------------------| 
|----------------------|-6--x-6-(6)-12-12-12-12-12\-|--------------------| 
|----------------------|-7--x-7-(7)-----------------|--------------------| 
|--0--0-3s4-4-5-5-7\-0-|----------------------------|-0-0-3s4-4-5-5-7\-0-| 
 
 
  Gtr I 
  ~                                                                      ~ 
|-----------------------------------|-----------------|----------------------| 
|-8----8\-------3-------------------|---------0-------|----------------------| 
|-7--0-7\-0h2h4---2h4p2p0-----------|-----------------|-2--------------------| 
|-6--0-6\-----------------2p0h2p0h2-|-----------------|-2----2-(2)-----------| 
|-7----7\---------------------------|-0--/4-4-5-5-7s0-|-0--x----x------------| 
|-----------------------------------|-----------------|----x-3-(3)b5r(3)-3---| 
 
 
                                                    ~~~~~~~ 
|--------------------|---------------|-------------------------| 
|---0---0-0-0-0------|-8----8-(8)\---|----------3--------------| 
|--------------------|-7-x--7-(7)\---|------------2----------0-| 
|--------------------|-6-x--6-(6)\---|-------------------------| 
|--------------------|-7-x--7-(7)s===|=2--(2)-2-----2--(2)-0---| 
|-0-0-3s4-4-5-5-7\-0-|---------------|-------------------------| 
 
 
                                        ~~~~~~ 
|----------------------|----------------------------------------------| 
|----------5---5-5-5---|---15b17==(15)-15-15r(15)-15-12----12---------| 
|--------------------0-|--------------------------------14----12b12.5-| 
|----------------------|----------------------------------------------| 
|-0--(0)-0---0---------|----------------------------------------------| 
|----------------------|-0--------------------------------------------| 
 
 
                     ~~~~~~~ 
|-------------------------------------------|| 
|-------------------------------------------|| 
|-------------12----------------------------|| 
|-14-12-13-14----14-12-(12)----------12-----|| 
|---------------------------12-13-14----14\-|| 
|-------------------------------------------|| 
 
 
 Verse 3 
                             Gtr II 
|----------|-----------------|-------------|------------------| 
|----------|-----------------|-/10\--------|------/12-(12)\---| 
|----------|-----------------|-------------|------------------| 
|----------|-----------------|-------------|------------------| 
|----------|------------x\---|-------------|------------------| 
|-0--------|-(0)----(0)------|-------------|------------------| 
 
 
                      Gtr I 
|-----------|---------|---------|------------| 
|-----------|---------|---------|------------| 
|-----------|---------|---------|------9\----| 
|-----------|---------|---------|------------| 
|--------x\-|---------|---------|------------| 
|-----------|---------|---------|------------| 
 
 
                    Gtr II 
                                             ~~~~~ 
|---------|---------|--------------------|----------|| 
|---------|---------|--/10-(10)b12=======|=(10)r----|| 
|---------|---------|--------------------|----------|| 
|---------|---------|--------------------|----------|| 
|---------|---------|--------------------|----------|| 
|---------|---------|--------------------|----------|| 
 
 
 Verse 4 
  Gtr I 
                   ~~~~~~~~~~~ 
|---------------------|-------------------------|-------------------------| 
|-------/15b17===(15)-|-(15)r-----/15-(15)b17===|=(15)r-------------------| 
|-x-------------------|-------------------------|-----------/14-(14)b15===| 
|-x-------------------|-------------------------|-------------------------| 
|---------------------|-------------------------|-------------------------| 
|---------------------|-------------------------|-------------------------| 
 
 
              ~~~~~                     ~~~~~~~~~~~~~~~~ 
|-------------------------|---------------------|-----------------| 
|-------------------------|---------------------|-----------------| 
|-(14)b16===(14)r-----/16-|-(16)b18===(16)------|-(16)r-------/14-| 
|-------------------------|---------------------|-----------------| 
|-------------------------|---------------------|-----------------| 
|-------------------------|---------------------|-----------------| 
 
 
|-------------------|--------------|-----------| 
|-------------------|--------------|-----------| 
|-14b16=====(14)r===|=(14)\--------|-----------| 
|-------------------|--------------|-----------| 
|-------------------|--------------|-x\--------| 
|-------------------|--------------|-----------| 
 
 
|------------|-------------------|-----------|| 
|-9p7--------|-------------------|-----------|| 
|------------|--7tr9-(7tr9)------|-(7tr9)----|| 
|------------|-------------------|-----------|| 
|------------|-------------------|-----------|| 
|------------|-------------------|-----------|| 
 
 
 Verse 5 
|---------|------------------------------|---------------| 
|---------|------------------------------|---------------| 
|---------|-14b15r(14)p12-(12)b12.5------|--------15p14p=| 
|---------|------------------------------|---------------| 
|---------|------------------------------|---------------| 
|---------|------------------------------|---------------| 
 
 
|-------------------------------------------------------------| 
|-------------------------------------------------------------| 
|-12b12.5--15p14p12b12.5--15p14p12b12.5--15p14p12b12.5--15p14p| 
|-------------------------------------------------------------| 
|-------------------------------------------------------------| 
|-------------------------------------------------------------| 
 
 
           ~~~~ 
|-------------------------|-----| 
|-------------------------|-----| 
|-12b14==(12)-(12)r\------|-----| 
|-------------------------|-----| 
|-------------------------|-----| 
|-------------------------|-----| 
 
 
|-----------------------------------------------------| 
|-----------------------------------------------------| 
|--15p14p12b12.5--15p14-12b12.5--15p14p12b12.5--15p14p| 
|-----------------------------------------------------| 
|-----------------------------------------------------| 
|-----------------------------------------------------| 
 
 
                                                        ~~~ 
|----------------------------------------------------|------------------| 
|----------------------------------------------------|-----------12-12--| 
|-12b12.5--15p14p12b12.5--15p14-12----14----12-------|------------------| 
|----------------------------------14----14----14-12-|------------------| 
|----------------------------------------------------|-14\--------------| 
|----------------------------------------------------|------------------| 
 
 
      PM 
|----------------------|---------------------------------| 
|-15-15b17------12tr15-|-(12tr15)b14=======(12tr15)b15===| 
|----------------------|---------------------------------| 
|----------------------|---------------------------------| 
|----------------------|---------------------------------| 
|----------------------|---------------------------------| 
 
 
|-------------------------|| 
|-(12tr15)r===(12tr15)----|| 
|-------------------------|| 
|-------------------------|| 
|-------------------------|| 
|-------------------------|| 
 
 
    ~~~~ 
|-------------|------------------------| 
|-(12)--------|------------------------| 
|-------------|------------9----9----9-| 
|-------------|-----(9)-11---11---11---| 
|-------------|------------------------| 
|-------------|------------------------| 
 
 
         ~~~~~~ 
|---------------------------------------------| 
|---------------------------------------------| 
|-11b13-11b13====(11)r-11pb12r(11)p9h11-11----| 
|------------------------------------------11-| 
|---------------------------------------------| 
|---------------------------------------------| 
 
 
  ~                                                                         ~~~~~~~~ 
|---------------------12----|------------------------------------------------------| 
|------------------12----15-|-12------------------------------------15-------------| 
|-9-(9)\-----14b16----------|----14b16r(14)p12-14----12----12-14b16----14-(14)b16==| 
|---------------------------|---------------------14----14-------------------------| 
|---------------------------|------------------------------------------------------| 
|---------------------------|------------------------------------------------------| 
 
 
 ~~~~~~ 
|---------------------------------------------------| 
|---------------------------------------------------| 
|-(14)--(14)-14r(14)p12-14----12-14-14pb16==(14)r14-| 
|--------------------------14-----------------------| 
|---------------------------------------------------| 
|---------------------------------------------------| 
 
 
      ~~~~~                      ~      ~      ~ 
|------------------------------|-----------------------------------| 
|------------------------------|-----------------------------------| 
|-12----------------------9----|-9-9----9-9----9-9h11-9----9-11b13r| 
|----14-14-(14)\-----9h11---11-|-----11-----11----------11---------| 
|------------------------------|-----------------------------------| 
|------------------------------|-----------------------------------| 
 
 
|--------------------------------------------| 
|--------------------------------------------| 
|-(11)p9-11-9----11b13==(11)r(11)p9-11-9-----| 
|-------------11-------------------------11--| 
|--------------------------------------------| 
|--------------------------------------------| 
 
 
  Gtr II 
                                                        ~~ 
|--------------12--------------------------------------------| 
|-----------12----15-12--------------------------------------| 
|---14b14.5-------------14b16r(14)p12-14-12b12.5----------12-| 
|------------------------------------------------14p12-14----| 
|------------------------------------------------------------| 
|------------------------------------------------------------| 
| 
| Gtr I 
| ~ 
|------------------------------------------------------------| 
|------------------------------------------------------------| 
|-9----------------------------------------------------------| 
|------------------------------------------------------------| 
|------------------------------------------------------------| 
|------------------------------------------------------------| 
 
 
|---------------------------------------------|-----------------------------------------|| 
|--------------12-----------------------------|-----------------------------------------|| 
|-12-12----12--12------14-14----12-12b12.5----|-12b12.5-12b12.5-12b12.5----12b13--------|| 
|-------14--------(14)-------14------------14-|-------------------------14--------------|| 
|---------------------------------------------|----------------------------------14\----|| 
|---------------------------------------------|-----------------------------------------|| 
| 
|     ~~~~~~~~~~~~~~~~~~~~~~~~~~~~~~~~~~~~~~~~~~~~~~~~~~ 
|---------------------------------------------|-----------------------------------------|| 
|---------------------------------------------|-----------------------------------------|| 
|--7s=9----(9)--------------------------------|-(9)-------------------------------------|| 
|---------------------------------------------|-----------------------------------------|| 
|---------------------------------------------|-----------------------------------------|| 
|---------------------------------------------|-----------------------------------------|| 
 
 
  Gtr II 
|----------|-------------|---------------------------------| 
|----------|-------------|---------------------------------| 
|----------|----2s11\----|---14b16r(14)p12---14b15r(14)p12-| 
|----------|-------------|---------------------------------| 
|----------|-------------|---------------------------------| 
|-0--------|-------------|---------------------------------| 
 
 
                                                      ~~ 
|------------------------12---------------------|------------------| 
|------------------------12---------------------|------------------| 
|---14b15r(14)p12-14b16=====14r(14)p12----14----|-12h14-(14)\------| 
|--------------------------------------14----14-|------------------| 
|-----------------------------------------------|------------------| 
|-----------------------------------------------|------------------| 
 
 
|------------------------------------------------------------------| 
|----------------15--------------15-------------15-------------15--| 
|---14b16==(14)r----14b16==(14)r----14-(14)pb16----14-(14)pb16-----| 
|------------------------------------------------------------------| 
|------------------------------------------------------------------| 
|------------------------------------------------------------------| 
 
 
|--------------------------------------------------------------------------| 
|-------------15-------------15-----------15-------------------------------| 
|-14-(14)pb16----14-(14)pb16----14-14pb16----14b16==(14)r(14)p12-14b15p12--| 
|--------------------------------------------------------------------------| 
|--------------------------------------------------------------------------| 
|--------------------------------------------------------------------------| 
 
 
                           ~~ 
|----------------|-----------------------------| 
|----------------|-----------------------------| 
|----14b15p12----|--14b16p12----14b16r(14)-12--| 
|----------------|-----------------------------| 
|----------------|-----------------------------| 
|----------------|-----------------------------| 
 
 
                                           Faster Q=150 
                 ~~~~~~ 
|----------------------------|-------------||-----------|| 
|----------------------------|-------------||-----------|| 
|--14b16r(14)---14b16r(14)---|-7tr9--------||-(7tr9)----|| 
|----------------------------|-------------||-----------|| 
|----------------------------|-------------||-----------|| 
|----------------------------|-------------||-----------|| 
 
 
  Gtr II 
|-16-16\-------/16-16-16-14-|-12-12\-------/12-12-12-14-| 
|-15-15\-------/15-15-15----|-12-12\-------/12-12-12-14-| 
|-16-16\-------/16-16-16-14-|-13-13\-------/13-13-13-14-| 
|---------------------------|---------------------------| 
|---------------------------|---------------------------| 
|---------------------------|---------------------------| 
| 
| Gtr I 
|---------------------------|---------------------------| 
|---------------------------|---------------------------| 
|--9--9----(9)---9--9--9--7-|--9--9--(9)----------------| 
|--9--9----(9)---9--9--9--7-|--9--9--(9)----------------| 
|--7--7----(7)---7--7--7--7-|--7--7--(7)----------------| 
|---------------------------|---------------------------| 
 
 
         ~~~~~~~ 
|-16-16-16------------------------| 
|-15-15-15------------15-15-15----| 
|-16-16-16-(16)--(16)-16-16-16-14-| 
|---------------------------------| 
|---------------------------------| 
|---------------------------------| 
| 
|---------------------------------| 
|---------------------------------| 
|--9-----9--------(9)--9--9--9--7-| 
|--9-----9--------(9)--9--9--9--7-| 
|--7-----7--------(7)--7--7--7--7-| 
|---------------------------------| 
 
 
                                 ~~~~~~~~~ 
|-12-12\-------------------|-----------------21----19-| 
|-12-12\-------17-17-17----|-18-----------------------| 
|-13-13\-------18-18-18-19-|-20-21---(21)-21----21-19-| 
|--------------------------|--------------------------| 
|--------------------------|--------------------------| 
|--------------------------|--------------------------| 
| 
|--------------------------|--------------------------| 
|--------------------------|--------------------------| 
|--9--9--(9)----------0----|--2--2----(2)-----2--2--0-| 
|--9--9--(9)----------0----|--2--2----(2)-----2--2--0-| 
|--7--7--(7)----------0----|--0--0----(0)-----0--0--0-| 
|--------------------------|--------------------------| 
 
 
|-17-17\--------------12----14--| 
|-------------------------------| 
|-18-18\----------/13----13-14--| 
|-------------------------------| 
|-------------------------------| 
|-------------------------------| 
| 
|-------------------------------| 
|--2--2-------------------------| 
|--2--2---2-2-2-2------2--0-----| 
|--2--2---2-2-2-2------2--0--0--| 
|--0--0---0-0-0-0------0-----0--| 
|----------------------------0--| 
 
 
       ~~~~~~~~~ 
|-/16--------------16----14-|-12-12\-----------------| 
|---------------------------|---------1-(1)s=15---16-| 
|-/16-16---(16)-16----16-14-|-13-13\-----------------| 
|---------------------------|------------------------| 
|---------------------------|------------------------| 
|---------------------------|------------------------| 
| 
|---------------------------|------------------------| 
|---------------------------|------------------------| 
|----------------9--9--9--7-|--9--9-----(9)---9\-----| 
|----------------9--9--9--7-|--9--9-----(9)---9\-----| 
|---7--7----(7)--7--7--7--7-|--7--7-----(7)---7\-----| 
|---0--0----(0)-------------|------------------------| 
 
 
|-17----17-(17)----17----17----17-| 
|----16---------16----16----16----| 
|---------------------------------| 
|---------------------------------| 
|---------------------------------| 
|---------------------------------| 
| 
|---------------------------------| 
|---------------------------------| 
|--4---------4---------4-----4----| 
|--4---------4---------4-----4----| 
|--2---------2---------2-----2----| 
|---------------------------------| 
 
 
|----15----15----15-(15)----15----15-| 
|-14----14----14---------14----14----| 
|------------------------------------| 
|------------------------------------| 
|------------------------------------| 
|------------------------------------| 
| 
|------------------------------------| 
|------------------------------------| 
|--2--------2---------2---------2----| 
|--2--------2---------2---------2----| 
|--0--------0---------0---------0----| 
|------------------------------------| 
 
 
|---10---10---10-(10)---10---10-|---5-----5------------12----|| 
|-9----9----9---------9----9----|-4-----4---4-------12-------|| 
|-------------------------------|----------------------------|| 
|-------------------------------|----------------------------|| 
|-------------------------------|----------------------------|| 
|-------------------------------|----------------------------|| 
| 
|-------------------------------|----------------------------|| 
|-------------------------------|----------------------------|| 
|-9-------9--------9-------9----|-4---4---4-4-(4)-4-----4-0--|| 
|-9-------9--------9-------9----|-4---4---4-4-(4)-4-----4-0--|| 
|-7-------7--------7-------7----|-2---2---2-2-(2)-2-----2-0--|| 
|-------------------------------|-------------------------0--|| 
 
 
 Outro 
         ~~ 
|--------------------------------12-------| 
|-12--------------------------12----------| 
|----14-13------------------x-------------| 
|------------------------14---------------| 
|-----------------------------------------| 
|-----------------------------------------| 
| 
|-----------------------------------------| 
|--9--9--x-x-9-x-x-9-x-x----------9-9-x-x-| 
|--9--9--x-x-9-x-x-9-x-x----------9-9-x-x-| 
|--9--9--x-x-9-x-x-9-x-x----------9-9-x-x-| 
|--7--7--x-x-7-x-x-7-x-x----------7-7-x-x-| 
|-----------------------------------------| 
 
 
              ~~                                 ~~ 
|---------12------------------------12--|-----------------------------------0----| 
|------12------------------------12-----|-12---------------12--------------------| 
|----x-------13----------------x--------|----14-13------------14-12--------------| 
|-14----------0-------------14----------|----------------------------------------| 
|---------------------------------------|----------------------------------------| 
|---------------------------------------|----------------------------------------| 
| 
|---------------------------------------|----------------------------------------| 
|----------9--x-x-9-x-x-9---------------|--9-----x-x-9-x-x--9-----x-x-x-x-x-x----| 
|----------9--x-x-9-x-x-9-7-------------|--9-----x-x-9-x-x--9-----x-x-x-x-x-x----| 
|----------9--x-x-9-x-x-9-7-------------|--9-----x-x-9-x-x--9-----x-x-x-x-x-x----| 
|----------7--x-x-7-x-x-7-7-------------|--7-----x-x-7-x-x--7-----x-x-x-x-x-x----| 
|---------------------------------------|----------------------------------------| 
 
 
|----------------------------------|-15p12----15p12----15p12----15p12----15p12----15p| 
|-12-----------------12------------|-------12-------12-------12-------12-------12----| 
|----14-12--------------14-12------|-------------------------------------------------| 
|----------------------------------|-------------------------------------------------| 
|----------------------------------|-------------------------------------------------| 
|----------------------------------|-------------------------------------------------| 
| 
|----------------------------------|-------------------------------------------------| 
|--x--x--x-x-x-x-9-9--9------------|--2-----x--x--2-----x--x--2-----x--x--2-----x--x-| 
|--x--x--x-x-x-x-9-9--9-----7--0-0-|--2-----x--x--2-----x--x--2-----x--x--2-----x--x-| 
|--x--x--x-x-x-x-9-9--9-----7--0-0-|--2-----x--x--2-----x--x--2-----x--x--2-----x--x-| 
|--x--x--x-x-x-x-7-7--7-----7--0-0-|--0-----x--x--0-----x--x--0-----x--x--0-----x--x-| 
|---------------------------0------|-------------------------------------------------| 
 
 
|-12----15p12----15p12----15p12----------12----| 
|----12-------12-------12-------12-12-12-------| 
|----------------------------------------------| 
|----------------------------------------------| 
|----------------------------------------------| 
|----------------------------------------------| 
| 
|----------------------------------------------| 
|--2-----x--x--2--2--2--2--2-------------------| 
|--2-----x--x--2--2--2--2--2-----0-------------| 
|--2-----x--x--2--2--2--2--2-----0-------------| 
|--0-----x--x--0--0--0--0--0-----0-------------| 
|----------------------------------------------| 
 
 
|-(12)---------------------------------------------| 
|------12----14p12----14p12----14p12----14p12------| 
|---------12-------12-------12-------12-------12---| 
|--------------------------------------------------| 
|--------------------------------------------------| 
|--------------------------------------------------| 
| 
|--------------------------------------------------| 
|--------------------------------------------------| 
|---9------x--x--9-----x--x--9--9--x--x--9--x--x-x-| 
|---9------x--x--9-----x--x--9--9--x--x--9--x--x-x-| 
|---7------x--x--7-----x--x--7--7--x--x--7--x--x-x-| 
|--------------------------------------------------| 
 
 
            ~~~~~                                 ~~~~~ 
|----------------------------------------------|------------------| 
|---15-----15b17---------15---12---------------|------------------| 
|--------------------------------14b15r(14)p12-|-14b16------------| 
|----------------------------------------------|------------------| 
|----------------------------------------------|------------------| 
|----------------------------------------------|------------------| 
| 
|----------------------------------------------|------------------| 
|----------------------------------------------|--4-----4--4--4---| 
|-9----x-x--9----9-x-9-9-----------------------|--4-----4--4--4---| 
|-9----x-x--9----9-x-9-9----0------------------|--4-----4--4--4---| 
|-7----x-x--7----7-x-7-7----0------------------|--2-----2--2--2---| 
|---------------------------0------------------|------------------| 
 
 
  Gtr I 
|----------|-----------*| 
|-2--------|-8\--------*| 
|-2--------|-7\--------*| 
|-2--------|-----------*| 
|-0--------|-7\--------*| 
|----------|-----------*| 
 
 
Tablature Legend 
---------------- 
 h   - hammer-on 
 p   - pull-off 
 b   - bend 
 pb  - pre-bend 
 r   - bend release (if no number after the r, then release immediately) 
 /\  - slide into or out of (from/to "nowhere") 
 s   - legato slide 
 S   - shift slide 
  - natural harmonic 
{n}  - artificial harmonic 
n(n) - tapped harmonic 
 ~   - vibrato 
 tr  - trill 
 T   - tap 
 TP  - trem. picking 
 PM  - palm muting 
\n/  - tremolo bar dip; n = amount to dip 
 \n  - tremolo bar down 
 n/  - tremolo bar up 
/n\  - tremolo bar inverted dip 
 =   - hold bend; also acts as connecting device for hammers/pulls 
 <>  - volume swell (louder/softer) 
 x   - on rhythm slash represents muted slash 
 o   - on rhythm slash represents single note slash 
 
Misc Legend 
----------- 
 |  - bar 
||  - double bar 
||o - repeat start 
o|| - repeat end 
*|  - double bar (ending) 
 :  - bar (freetime) 
 $  - Segno 
 &  - Coda 
Tempo markers -  = BPM(8/16=s8/s16), where s8 = swing 8ths, s16 = swing 16ths 
	  

Full key step upFull key step up
Half key step upHalf key step up
Half key step downHalf key step down
Full key step downFull key step down
Search Paypal
auto scroll beats size up size down change color hide chords drawings
tab show chords e-chords YouTube Clip e-chords hide all tabs e-chords go to top tab