Led Zeppelin

home > Led Zeppelin

Since Ive Been Loving You Live Tab

Led Zeppelin

Difficulty: ExpertExpert

tuner correct add songbook print version text version save to e-mail
chordsukulelecavacokeyboardtabbassdrumsharmonicsflute Guitar Pro
chords

Since Ive Been Loving You Live

  		 Intro 
Improvise on a C minor pentatonic scale in 1st position. Thats what 
Jimmy is doing 
 
E-----------------------------------------8--11---------------------| 
B----------------------------------8-11-----------------------------| 
G-------------------------8---10------------------------------------| 
D------------------8--10--------------------------------------------| 
A---------8---10----------------------------------------------------| 
E-8--11-------------------------------------------------------------| 
 
E------------13-13^-13^-13------------|-15h16p15---------------------| 
B--16-13-16----------------13~~~~~~~~~|-11--------16p11--------------| 
G-------------------------------------|-11---------------15p12----12-| 
D-------------------------------------|------------------------15----| 
A-------------------------------------|------------------------------| 
E-------------------------------------|------------------------------| 
 
E---|--------13p11h13p11h13p11h13p11-11~~~~~--13p11-------11----------| 
B---|-11h16-----------------------------------------13p11----13-13-13-| 
G---|-----------------------------------------------------------------| 
D-15|-----------------------------------------------------------------| 
A---|-----------------------------------------------------------------| 
E---|-----------------------------------------------------------------| 
 
E-15h16p15---|10h11p10-------------|-----------------11~~~~----13^--| 
B----------13|---------13p11~~~~~--|13^-13^-13p11h13--------13------| 
G------------|---------------------|--------------------------------| 
D------------|---------------------|--------------------------------| 
A------------|---------------------|--------------------------------| 
E------------|---------------------|--------------------------------| 
 
E-----------|-8-11-10-8-10-11-10-8----------------------------------| 
B-13-13~~~~-|-----------------------9-9--8-8------------------------| 
G-----------|---------------------------------10-10-8-8-------------| 
D-----------|--------------------------------------------10-10-8-8--| 
A-----------|-------------------------------------------------------| 
E-----------|-------------------------------------------------------| 
 
E--------------------------------|-------------------------|--------| 
B--------------------------------|---------8---------------|--------| 
G--------------------------------|----8-10---10-8-10-------|--------| 
D----------------------------4-3-|-10----------------10-10-|--------| 
A-10-10-8-8------8-9-8-----------|-------------------------|--------| 
E------------11---------2-1------|-------------------------|--------| 
 
E--------------------|----------------|-------------13^-13^-----------| 
B--------------------|----------16----|-----16--18---------11-11-11~~-| 
G---------8----------|-------15----17-|-17----------------------------| 
D----8-10---10-10-10-|-15h17----------|-------------------------------| 
A-10-----------------|----------------|-------------------------------| 
E--------------------|----------------|-------------------------------| 
 
E-------------------------------------------------------------------| 
B--8h11p8-----------------------------------------------------------| 
G----------10-8-----------------8-10---------------------------8-10-| 
D---------------10-8-------8-10------10-8--10-8------8-10-----------| 
A---------------------10-8----------------------10-8------10-8------| 
E-------------------------------------------------------------------| 
 
E------------------------------------|------------------------------| 
B-------------------------------8-11-|-11p8----11p8----8---8--11-13-| 
G------8-10----------------8-10------|------10------10---10---------| 
D-8-10------8-10------10-8-----------|------------------------------| 
A----------------8-10----------------|------------------------------| 
E------------------------------------|------------------------------| 
 
E-11-13^-13^-13^-13^-|------8-11p8-11p8----13^-13^-13-13^-13p11-----| 
B--------------------|-9-11-------------11----------------------13--| 
G--------------------|----------------------------------------------| 
D--------------------|----------------------------------------------| 
A--------------------|----------------------------------------------| 
E--------------------|----------------------------------------------| 
 
E---------------------------------------------------------------------| 
B-8h11p8--------------------------------------------------------------| 
G--------10-8-------8-10------------------8-10----------------10-8-10-| 
D--------------10-8------10-8--------8-10------8-10------8-10---------| 
A-----------------------------10-9-8----------------10-8--------------| 
E---------------------------------------------------------------------| 
 
E---------------------------------------------------8-11--13^-13p11-| 
B----------------------------------------------8-11-----------------|13 
G-10--------------------------------------8-10----------------------| 
D---10------10-8----------------8-10-10-8---------------------------| 
A------10-8------10-8------8-10-------------------------------------| 
E---------------------11-8------------------------------------------| 
 
E------------------------------------------------------| 
B-15^-15^-15^-15^-15-13-15-15^-15^-15^-15^-15-13----13-| 
G------------------------------------------------15----| end of intro 
D------------------------------------------------------| 
A------------------------------------------------------| 
E------------------------------------------------------| 
 Verse 1 
E-8\10/8--8\10/8--|-------------------------------------------------| 
B-6\-8/6--6\-8/6--|--11^--11p8-11p8---------------------------------| 
G-----------------|-----------------10p8----8-----------------------| 
D-----------------|----------------------10---10p8------8-----------| 
A-----------------|---------------------------------10-----10--8----| 
E-----------------|-----------------------------------------------11| 
 
E--------------------------------------------------------------------| 
B--9-9--8-8------------------------------|-11^-11p8-----8------------| 
G-----------10-10---8-8------------------|-----------10---10-8----8--| 
D------------------------10-10-8-8-----8-|---------------------10----| 
A-----------------------------------10---|---------------------------| 
E----------------------------------------|---------------------------| 
            Bridge " Ow i love you......" 
E----------|---------------------------|--------------------------|--| 
B----------|---------------------------|--------------------------|--| 
G----------|----------8--------8-------|---------8--------10p8----|--| 
D-10-8-----|----8-10-----10-10---10-10-|----8-10---10-10--------10|--| 
A-------10-|-10------------------------|-10-----------------------|--| 
E----------|---------------------------|--------------------------|--| 
 
E--------------------------|----11p8---13p8----x3---| 
B--------------------------|--8------8------8-------| 
G----------8-------8-------|------------------------| 
D----8-10----10-10---10-10-|------------------------| 
A-10-----------------------|------------------------| 
E--------------------------|------------------------| 
  Chorus 
E---------------------------------------------------------|-----------| 
B---------------------------------------------------------|-----------| 
G------------------------------------------5\4/5\7\5/7\5--|-----------| 
D--5--5p3p0-5p3p0-5p3p0-5p3p0--6\8/6--5\3-----------------|------10---| 
A--5---------------------------6\8/6--5\3--6\5/6\8\6/8\6--|-10-9----9-| 
E--3---------------------------4\6/4--3\1-----------------|-----------| 
                                     Verse 2 
E----------------------------------|--------------------|-------------| 
B----------------------------------|--------------------|-------------| 
G----------------------------------|--------------------|-5-5-5-5-7-7-| 
D--10^-10------10---10^-10---------|--4--3--------------|-------------| 
A----------9-8----8----------------|--------------------|-6-6-6-6-8-8-| 
E---------------------------6-7-8--|--------2--1---6-7-8|-------------| 
 
E------------------------------------|-------------------------------| 
B------------------------------------|-----------------11-8----------| 
G--7--7---8--8--8--8--10-10-10-10----|---------10-8----------10-8-10-| 
D------------------------------------|----8-10------10---------------| 
A--8--8--10-10-10-10--11-11-11-11--10|-10----------------------------| 
E------------------------------------|-------------------------------| 
 
E----------11-8-11-11^-|---------------------------------------------| 
B-8-11-8---------------|-9--9--8--8----------------------------------| 
G----------------------|-------------10-10-8-8-----------------------| 
D----------------------|------------------------10-10-8-8------------| 
A----------------------|-----------------------------------10-10-8-8-| 
E----------------------|---------------------------------------------| 
 
E----------|-----------|---------------------------|-----------------| 
B----------|------11^--|---------------------------|-----------------| 
G----------|--10^------|-----------8-------8-------|---------8-------| 
D----------|-----------|-----8--10---10-10---10-10-|----8-10---10-10-| 
A----8-9-8-|-----------|--8------------------------|-10--------------| 
E 11-------|-----------|---------------------------|-----------------| 
 
E----------|------------------------|---11p8---13p8------|X3 
B----------|------------------------|-8------8-----8-----| 
G-10p8-----|---------8-------8------|--------------------| 
D------10--|----8-10---10-10---10-10|--------------------| 
A----------|-10---------------------|--------------------| 
E----------|------------------------|--------------------| 
 
Ok this is all i got so far but i will get the rest soon 
 
^=bend 
h=hammer on's 
p= pull off's 
~~~~~= virbrato 
 
This song sounds awesome live. So have alot of fun with it and enjoy.
	  

Full key step upFull key step up
Half key step upHalf key step up
Half key step downHalf key step down
Full key step downFull key step down
Search Paypal
auto scroll beats size up size down change color hide chords drawings
tab show chords e-chords YouTube Clip e-chords hide all tabs e-chords go to top tab