Led Zeppelin

Going To California (ver. 3) Tab

Led Zeppelin

Difficulty: BeginnerBeginner

tuner correct add songbook print version text version save to e-mail
chordsukulelecavacokeyboardtabbassdrumsharmonicsflute Guitar Pro
close

there isn't a video lesson for this song

request
chords

Going To California (ver. 3)

  		note: I edited this transcription because i felt the sound was incomplete.  The studio 
version of this song has a mandolin part and a few guitars over the basic guitar part, 
which obscure that original sound.  This tab incorporates some of the more noticable 
sounds produced by instruments other than the basic guitar, making this tab more useful 
for one guitar. 
 
feel free to email me with concerns/questions at [email protected] 
 
 
DGDGBD (low to high) Tuning 
 
D|--0-------0-----|--0-------0-----|--0-------0-----|--0-------0-----| 
B|------3---------|------3---------|------3---------|------3---------| 
G|----------------|----------------|----------------|----------------| 
D|----0-------0---|----0-------0---|----0-------0---|----0-------0---| 
G|----------------|----------------|----------------|----------------| 
D|0-------0-------|0-------0-------|0-------0-------|0-------0-------| 
 
 
D|--0-------0-----|--0-------0-----|--0-------0-----|--0-------0-----| 
B|------3---------|------3---------|------3---------|------3---------| 
G|----------------|----------------|----------------|----------------| 
D|----0-------0---|----0-------0---|----0-------0---|----0-------0---| 
G|----------------|----------------|----------------|----------------| 
D|0-------0-------|0-------0-------|0-------0-------|0-------0-------| 
 
 
D|5-----4---2---0-|0-2---0-------0-|5-----4---2---0-|0-2---0-------0-| 
B|----0-------0---|----0-------0---|----0-------0---|----0-------0---| 
G|----0-------0---|----0-------0---|----0-------0---|----0-------0---| 
D|----------------|----------------|----------------|----------------| 
G|0-------0-------|0-------0-------|0-------0-------|0-------0-------| 
D|----------------|----------------|----------------|----------------| 
  Spent my days with a woman unkind..... 
 
 
D|----0-----0---7-|------7-------7-|----0-----0---7-|------7-------7-| 
B|5-7---5-----5---|----7-------7---|5-7---5-----5---|----7-------7---| 
G|----------------|--9-------9-----|----------------|--9-------9-----| 
D|----0-------0---|----0-------0---|----0-------0---|----0-------0---| 
G|----------------|----------------|----------------|----------------| 
D|0-------0-------|0-------0-------|0-------0-------|0-------0-------| 
 
 
D|5-----4---2---0-|0-2---0-------0-|5-----4---2---0-|0-2---0-------0-| 
B|----0-------0---|----0-------0---|----0-------0---|----0-------0---| 
G|----0-------0---|----0-------0---|----0-------0---|----0-------0---| 
D|----------------|----------------|----------------|----------------| 
G|0-------0-------|0-------0-------|0-------0-------|0-------0-------| 
D|----------------|----------------|----------------|----------------| 
  Made up my mind..... 
 
 
D|----0-----0---7-|------7-------7-|----0-----0---7-|------7-------7-| 
B|5-7---5-----5---|----7-------7---|5-7---5-----5---|----7-------7---| 
G|----------------|--9-------9-----|----------------|--9-------9-----| 
D|----0-------0---|----0-------0---|----0-------0---|----0-------0---| 
G|----------------|----------------|----------------|----------------| 
D|0-------0-------|0-------0-------|0-------0-------|0-------0-------| 
 
 
D|5-----4---2---0-|0-2---0-------0-|5-----4---2---0-|0-2---0-------0-| 
B|----0-------0---|----0-------0---|----0-------0---|----0-------0---| 
G|----0-------0---|----0-------0---|----0-------0---|----0-------0---| 
D|----------------|----------------|----------------|----------------| 
G|0-------0-------|0-------0-------|0-------0-------|0-------0-------| 
D|----------------|----------------|----------------|----------------| 
  Someone told me..... 
 
 
D|----0-----0---7-|------7-------7-|----0-----0---7-|------7-------7-| 
B|5-7---5-----5---|----7-------7---|5-7---5-----5---|----7-------7---| 
G|----------------|--9-------9-----|----------------|--9-------9-----| 
D|----0-------0---|----0-------0---|----0-------0---|----0-------0---| 
G|----------------|----------------|----------------|----------------| 
D|0-------0-------|0-------0-------|0-------0-------|0-------0-------| 
 
 
D|3-2-0-3---3---0-|3-2-0-2---0---2-|--4-------0-----|--0-------0-----| 
B|----------------|----------------|------3---------|------3---------| 
G|----------------|----------------|----------------|----------------| 
D|----0-------0---|----0-------0---|----0-------0---|----0-------0---| 
G|----------------|4-------4-------|----------------|----------------| 
D|0-------0-------|----------------|0-------0-------|0-------0-------| 
 
 
D|3-2-0-3---3---0-|3-2-0-2---0---2-|--4-------0-----|--0-------0-----| 
B|----------------|----------------|------3---------|------3---------| 
G|----------------|----------------|----------------|----------------| 
D|----0-------0---|----0-------0---|----0-------0---|----0-------0---| 
G|----------------|4-------4-------|----------------|----------------| 
D|0-------0-------|----------------|0-------0-------|0-------0-------| 
 
 
D|--0-------0-----|--0-------0-----| 
B|------3---------|------3---------| 
G|----------------|----------------| 
D|----0-----0-----|----0-----0-----| 
G|----------------|----------------| 
D|0-------0-------|0-------0-------| 
  
 
D|5-----4---2---0-|0-2---0-------0-|5-----4---2---0-|0-2---0-------0-| 
B|----0-------0---|----0-------0---|----0-------0---|----0-------0---| 
G|----0-------0---|----0-------0---|----0-------0---|----0-------0---| 
D|----------------|----------------|----------------|----------------| 
G|0-------0-------|0-------0-------|0-------0-------|0-------0-------| 
D|----------------|----------------|----------------|----------------| 
  Took my chances..... 
 
 
D|----0-----0---7-|------7-------7-|----0-----0---7-|------7-------7-| 
B|5-7---5-----5---|----7-------7---|5-7---5-----5---|----7-------7---| 
G|----------------|--9-------9-----|----------------|--9-------9-----| 
D|----0-------0---|----0-------0---|----0-------0---|----0-------0---| 
G|----------------|----------------|----------------|----------------| 
D|0-------0-------|0-------0-------|0-------0-------|0-------0-------| 
 
 
D|5-----4---2---0-|0-2---0-------0-|5-----4---2---0-|0-2---0-------0-| 
B|----0-------0---|----0-------0---|----0-------0---|----0-------0---| 
G|----0-------0---|----0-------0---|----0-------0---|----0-------0---| 
D|----------------|----------------|----------------|----------------| 
G|0-------0-------|0-------0-------|0-------0-------|0-------0-------| 
D|----------------|----------------|----------------|----------------| 
  Sea was red and the sky was grey..... 
 
 
D|----0-----0---7-|------7-------7-|----0-----0---7-|------7-------7-| 
B|5-7---5-----5---|----7-------7---|5-7---5-----5---|----7-------7---| 
G|----------------|--9-------9-----|----------------|--9-------9-----| 
D|----0-------0---|----0-------0---|----0-------0---|----0-------0---| 
G|----------------|----------------|----------------|----------------| 
D|0-------0-------|0-------0-------|0-------0-------|0-------0-------| 
 
 
D|5-----4---2---0-|0-2---0-------0-|5-----4---2---0-|0-2---0-------0-| 
B|----0-------0---|----0-------0---|----0-------0---|----0-------0---| 
G|----0-------0---|----0-------0---|----0-------0---|----0-------0---| 
D|----------------|----------------|----------------|----------------| 
G|0-------0-------|0-------0-------|0-------0-------|0-------0-------| 
D|----------------|----------------|----------------|----------------| 
  The mountains and the canyons..... 
 
 
D|----0-----0---7-|------7-------7-|----0-----0---7-|------7-------7-| 
B|5-7---5-----5---|----7-------7---|5-7---5-----5---|----7-------7---| 
G|----------------|--9-------9-----|----------------|--9-------9-----| 
D|----0-------0---|----0-------0---|----0-------0---|----0-------0---| 
G|----------------|----------------|----------------|----------------| 
D|0-------0-------|0-------0-------|0-------0-------|0-------0-------| 
 
 
D|7---0-5-----0-7-|----0-5-----0-7-|----0-5-----0-7-|----0-5-----0---| 
B|--6-------6-----|--6-------6-----|--6-------6-----|--6-------6-----| 
G|----------------|----------------|----------------|----------------| 
D|-------0--------|-------0--------|-------0--------|-------0--------| 
G|----------------|----------------|----------------|----------------| 
D|7---------------|7---------------|0---------------|0---------------| 
  Seems like the wrath of the gods..... 
 
 
D|0-----0---------|----------------|0-----0---------|----------------| 
B|----2-----2-----|--2---2---2-----|----2-----2-----|--2---2---2-----| 
G|--0-------------|----------------|--0-------------|----------------| 
D|----2-------2---|----2-------2---|----2-------2---|----2-------2---| 
G|2-------2-------|2-------2-------|2-------2-------|2-------2-------| 
D|----------------|----------------|----------------|----------------| 
 
 
D|7---0-5-----0-7-|----0-5-----0-7-|----0-5-----0-7-|----0-5-----0---| 
B|--6-------6-----|--6-------6-----|--6-------6-----|--6-------6-----| 
G|----------------|----------------|----------------|----------------| 
D|-------0--------|-------0--------|-------0--------|-------0--------| 
G|----------------|----------------|----------------|----------------| 
D|7---------------|7---------------|0---------------|0---------------| 
  Throw me a line......... 
 
 
D|0-----0---------|------0---------|0-----0---------|----------------| 
B|----2-----2-----|--2-------2-----|----2-----2-----|--2---2---2-----| 
G|--0-------------|----------------|--0-------------|----------------| 
D|----2-------2---|----2-------2---|----2-------2---|----2-------2---| 
G|2-------2-------|2-------2-------|2-------2-------|2-------2-------| 
D|----------------|----------------|----------------|----------------| 
 
 
D|--0-------0-----|--0-------0-----|--0-------0-----|--0-------0-----| 
B|------3---------|------3---------|------3---------|------3---------| 
G|----------------|----------------|----------------|----------------| 
D|----0-------0---|----0-------0---|----0-------0---|----0-------0---| 
G|----------------|----------------|----------------|----------------| 
D|0-------0-------|0-------0-------|0-------0-------|0-------0-------| 
 
 
D|5-----4---2---0-|0-2---0-------0-|5-----4---2---0-|0-2---0-------0-| 
B|----0-------0---|----0-------0---|----0-------0---|----0-------0---| 
G|----0-------0---|----0-------0---|----0-------0---|----0-------0---| 
D|----------------|----------------|----------------|----------------| 
G|0-------0-------|0-------0-------|0-------0-------|0-------0-------| 
D|----------------|----------------|----------------|----------------| 
  To find a queen..... 
 
 
D|----0-----0---7-|------7-------7-|----0-----0---7-|------7-------7-| 
B|5-7---5-----5---|----7-------7---|5-7---5-----5---|----7-------7---| 
G|----------------|--9-------9-----|----------------|--9-------9-----| 
D|----0-------0---|----0-------0---|----0-------0---|----0-------0---| 
G|----------------|----------------|----------------|----------------| 
D|0-------0-------|0-------0-------|0-------0-------|0-------0-------| 
 
 
D|5-----4---2---0-|0-2---0-------0-|5-----4---2---0-|0-2---0-------0-| 
B|----0-------0---|----0-------0---|----0-------0---|----0-------0---| 
G|----0-------0---|----0-------0---|----0-------0---|----0-------0---| 
D|----------------|----------------|----------------|----------------| 
G|0-------0-------|0-------0-------|0-------0-------|0-------0-------| 
D|----------------|----------------|----------------|----------------| 
  Ride a white mare..... 
 
 
D|----0-----0---7-|------7-------7-|----0-----0---7-|------7-------7-| 
B|5-7---5-----5---|----7-------7---|5-7---5-----5---|----7-------7---| 
G|----------------|--9-------9-----|----------------|--9-------9-----| 
D|----0-------0---|----0-------0---|----0-------0---|----0-------0---| 
G|----------------|----------------|----------------|----------------| 
D|0-------0-------|0-------0-------|0-------0-------|0-------0-------| 
 
 
D|5-----4---2---0-|0-2---0-------0-|5-----4---2---0-|0-2---0-------0-| 
B|----0-------0---|----0-------0---|----0-------0---|----0-------0---| 
G|----0-------0---|----0-------0---|----0-------0---|----0-------0---| 
D|----------------|----------------|----------------|----------------| 
G|0-------0-------|0-------0-------|0-------0-------|0-------0-------| 
D|----------------|----------------|----------------|----------------| 
  Standing on a hill..... 
 
 
D|----0-----0---7-|------7-------7-|----0-----0---7-|------7-------7-| 
B|5-7---5-----5---|----7-------7---|5-7---5-----5---|----7-------7---| 
G|----------------|--9-------9-----|----------------|--9-------9-----| 
D|----0-------0---|----0-------0---|----0-------0---|----0-------0---| 
G|----------------|----------------|----------------|----------------| 
D|0-------0-------|0-------0-------|0-------0-------|0-------0-------| 
 
 
D|3-2---3---3-----|3-2-0-2---0---2-|--4-------0-----|--0-------0-----| 
B|----1-------1---|----0-----------|------3---------|------3---------| 
G|----0-------0---|----------------|----------------|----------------| 
D|----------------|----0-------0---|----0-------0---|----0-------0---| 
G|2-------2-------|4-------4-------|----------------|----------------| 
D|----------------|----------------|0-------0-------|0-------0-------| 
 
 
D|3-2---3---3-----|3-2-0-2---0---2-|--4-------0-----|--0-------0-----| 
B|----1-------1---|----0-----------|------3---------|------3---------| 
G|----0-------0---|----------------|----------------|----------------| 
D|----------------|----0-------0---|----0-------0---|----0-------0---| 
G|2-------2-------|4-------4-------|----------------|----------------| 
D|----------------|----------------|0-------0-------|0-------0-------| 
 
 
D|--0-------0-----|--0-------0-----| 
B|------5-------3-|------5-------3-| 
G|----------------|----------------| repeat 6 times 
D|----0-------0---|----0-------0---|   then fade 
G|----------------|----------------| 
D|0-------0-------|0-------0-------| 
	  

Search Paypal
auto scroll beats size up size down change color hide chords drawings
tab show chords e-chords YouTube Clip e-chords hide all tabs e-chords go to top tab

share with facebook