Led Zeppelin

home > Led Zeppelin

Dazed And Confused (solo ver 2) Tab

Led Zeppelin

Difficulty: AdvancedAdvanced

tuner correct add songbook print version text version save to e-mail
chordsukulelecavacokeyboardtabbassdrumsharmonicsflute Guitar Pro
chords

Dazed And Confused (solo ver 2)

  		Dazed And Confuesed Solo 
Led Zeppelin. 
Page, Jimmy. 
Led Zeppelin I. 
 
b: Bend string. 
p: Pull-Off. 
(x?): Repeat that amount of times. 
/?: Slide to from one note to another. 
(?): Pick the string. 
 
e:----------------------------------------------: 
B:----------------------------------------------: 
G:-----------12-14-12------------12-14-12b14----: 
D:------12-14--------14-----12-14-----------(x1): 
A:-12-14---------------12-14--------------------: 
E:----------------------------------------------: 
 
e:----------------------------------------------------------------| 
B:--15----14----12----10------8----7--5----8----7--3--2-----------| 
G:--17b19-16b18-14b16-12b14--10b12-9b-7b--10b12-9b-5b-4b----------| 
D:----------------------------------------------------------------| 
A:----------------------------------------------------------------| 
E:----------------------------------------------------------------| 
 
e:-------:------------------:-:-15p12-------:-15b16-15-12----------| 
B:-------:-12---12-15p12----:-:------12-----:------------15-12--12-| 
G:-------:-14b16--------(x4):-:---------(x4):-----------------14---| 
D:-------:------------------:-:-------------:----------------------| 
A:-------:------------------:-:-------------:----------------------| 
E:-------:------------------:-:-------------:----------------------| 
 
e:----------------------------------------------------------------| 
B:-15p12-----------------15------15p12-------------------(15)b----| 
G:------14-12-14-12-14b15--14b15------12-14-12--12-14p12------14--| 
D:--------------------------------------------14------------------| 
A:----------------------------------------------------------------| 
E:----------------------------------------------------------------| 
 
e:----------------------------------------------------------------| 
B:----------------------------------------------------------------| 
G:-12-14-7-8p7---------------------0-2-0-2-0-2-0-2-0-2-0-2-0-2b---| 
D:------------7-8p7-5-7p5-----2-4p2-------------------------------| 
A:-----------------------5-7p5------------------------------------| 
E:----------------------------------------------------------------| 
 
e:------------------------------:-15p12------:-15b16-12-15-12-15b16-| 
B:----------------------------12:------12----:----------------------| 
G:-0-2-0-2b-0-2-0-2-0-2-0-2b----:--------(x5):----------------------| 
D:------------------------------:------------:----------------------| 
A:------------------------------:------------:----------------------| 
E:------------------------------:------------:----------------------| 
 
e:-15-12----------------------------------------------------------| 
B:------15-12-----15p12-----------------------15-----15p12--------| 
G:-----------14-12-----14-12-14-12-14-12-14b16--14b16-----14-12---| 
D:----------------------------------------------------------------| 
A:----------------------------------------------------------------| 
E:----------------------------------------------------------------| 
 
e:-----------------------------15b16-15-15-14b15--12------15b16-12-| 
B:-15p12----------------------------------------14--12-12----------| 
G:------14p12-----12--12-14-12-------------------------------------| 
D:-----------14p12--14---------------------------------------------| 
A:-----------------------------------------------------------------| 
E:-----------------------------------------------------------------| 
 
e:------15p12-------:------15b16-12-15-12-15b16--15b16-12--12-----| 
B:-12-12-----12-----:-12-12------------------------------14-------| 
G:--------------(x4):---------------------------------------------| 
D:------------------:---------------------------------------------| 
A:------------------:---------------------------------------------| 
E:------------------:---------------------------------------------| 
 
e:-15b16-12--12--17b18-14--14-17b18-14--14--15b16-12--12----------| 
B:---------14------------16-----------16------------14------------| 
G:----------------------------------------------------------------| 
D:----------------------------------------------------------------| 
A:----------------------------------------------------------------| 
E:----------------------------------------------------------------| 
 
e:----------------------------------------------------------------| 
B:-15b16-------14b15--12-14---------------------------------------| 
G:------12--12------13------15b--12-14b--10-12b--9-10b-8----------| 
D:--------14-------------------14------13------11-----9-----------| 
A:----------------------------------------------------------------| 
E:----------------------------------------------------------------| 
 
e:---------:----------:---------:----------------------| 
B:-4p2-----:-4-2-(4)b-:-4p2-----:-4p2------------------| 
G:----2----:----------:----2----:----5p3---------------| 
D:-----(x3):----------:-----(x3):-------5p3------------| 
A:---------:----------:---------:----------5p3-4p2-----| 
E:---------:----------:---------:-----------------4p2--| 
 
There it is, I think that I got a bit lazy towards the end of the solo, 
so the ending most likely going to be wrong! But I just can't be bothered 
right now to figure it out properly. 
 
Tabbed by PJ Cool.
	  

Search Paypal
auto scroll beats size up size down change color hide chords drawings
tab show chords e-chords YouTube Clip e-chords hide all tabs e-chords go to top tab