Lauryn Hill

Just Like Water

Lauryn Hill

tabs Beginner beginner

save to print version add songbook text version e-mail correct tuner
chordsukulelecavacokeyboardtabbassdrumsharmonicaflute Guitar Pro
close

there isn't a video lesson for this song

chords

Just Like Water

	  		 
Isso se repete basicamente a música inteira: 
 
   °  °  °  °    °       °    ° 
E--7-----7-----7_9---9--10--10~9--9 
B--7-7----7---7-_8-8--8---8-----8-- 
G--8--8-8--8-8--_9--9--9---9-----9- x bis 
D------9----9---_------------------ 
A-----------2---_7----------------7 
D--7-----7------_------------------ 
  1a posição    2a posição 
 
 
 
Quarto verso: 
  °            °      ° ° °        °   °  ° °      °      °  °  °  ° 
E-11-----11----12----11   10---10--11--10   9---9--10   --7-----7-----7 
B-10-10----10----10----   --9----9---9---   -8---8---   --7-7----7---7- 
G-11---11----11----11-- x 10--10--10--10- x 9--9--9-- x --8--8-8--8-8-- 
D----------------------   ---------------   ---------   ------9----9--- 
A-9--------------------   8-------------8   7-------7   --------------- 
D----------------------   ---------------   ---------   --7-----7------ 
 
Repete 
 
  °            °      ° ° °        °   °  ° °      ° °°° 
E-11-----11----12----11   10---10--11--10   9---9--10 
B-10-10----10----10----   --9----9---9---   -8---8--- 
G-11---11----11----11-- x 10--10--10--10- x 9--9--9-- x 
D----------------------   ---------------   --------- 
A-9--------------------   8-------------8   7-------7 
D----------------------   ---------------   --------- 
 
 
   °  °  °  °    °       °°°°  °  °  °  °    °°°° 
E--7-----7-----7_9---9--10   --7-----7-----7_9- 
B--7-7----7---7-_8-8--8---   --7-7----7---7-_8- 
G--8--8-8--8-8--_9--9--9-- x --8--8-8--8-8--_9- 
D------9----9---_---------   ------9----9---_-- 
A---------------_7--------   ---------------_7- 
D--7-----7------_---------  ---7-----7------_-- 
 
- °            °      ° ° °            °    °   °      ° °°° 
E-13-----13----14----13   11----11----12---11   9---9--10 
B-12-12----12----12----   10-10---10----10---   -8---8--- 
G-13---13----13----13-- x 11---11---11----11- x 9--9--9-- x 
D----------------------   -------------------   --------- 
A-11-----------------11   9-----------------9   7-------7 
D----------------------   -------------------   --------- 
 
   °  °  °  ° 
E--7-----7-----7_ 
B--7-7----7---7-_ 
G--8--8-8--8-8--_ 
D------9----9---_ 
A---------------_ 
D--7-----7------_ 
  1a posição 
 
Repete: 
 
  °            °      ° ° °            °    °   °      ° °°° 
E-13-----13----14----13   11----11----12---11   9---9--10 
B-12-12----12----12----   10-10---10----10---   -8---8--- 
G-13---13----13----13-- x 11---11---11----11- x 9--9--9-- x 
D----------------------   -------------------   --------- 
A-11-----------------11   9-----------------9   7-------7 
D----------------------   -------------------   --------- 
 
  °  °  °  °    °       °    ° 
E--7-----7-----7_9---9--10--10~9--9 
B--7-7----7---7-_8-8--8---8-----8-- 
G--8--8-8--8-8--_9--9--9---9-----9- x bis 
D------9----9---_------------------ 
A---------------_7----------------7 
D--7-----7------_------------------ 
  1a posição       2a posição 
 
  °            °      ° ° °            °    °   °      ° °°° 
E-13-----13----14----13   11----11----12---11   9---9--10 
B-12-12----12----12----   10-10---10----10---   -8---8--- 
G-13---13----13----13-- x 11---11---11----11- x 9--9--9-- x 
D----------------------   -------------------   --------- 
A-11-----------------11   9-----------------9   7-------7 
D----------------------   -------------------   --------- 
 
 
 
_______________________________________________________ 
Contribuição: Luisa Girardi([email protected]) 

		  

See also:

tabs Lauryn Hill - Just Like Water tabs Julian Perretta - Wonder Why tabs Mumford And Sons - Ghost That We Knew tabs Mumford And Sons - Snake Eyes
e-chords

Other versions:

tabs Lauryn Hill - Just Like Water
auto scroll beats size up size down change color hide chords drawings
tab show chords e-chords YouTube Clip e-chords hide all tabs e-chords go to top tab

share