Laura Pausini

Ascolta il tuo cuore Tab

Laura Pausini

Difficulty: BeginnerBeginner

by evynha

tuner correct add songbook print version text version save to e-mail
chordsukuleleukulelecavacokeyboardtabbassdrumsharmonicsflute Guitar Pro
close

there isn't a video lesson for this song

chords

Ascolta il tuo cuore

  		 
Início 
 
|-1----1-0--1-----1-0--0-----0--------- 
|-----3----3-----3----3-----3--3-1-3--- 
|----2----------2----------2----------- 
|-------------------------------------- 
|-------------------------------------- 
|-------------------------------------- 
 
 
 
|-1----1-0--1-----1-0-------1-------5---3------------ 
|-----3----3-----3----3-------------------------3-1-- 
|----2----------2------------------------------------ 
|---------------------------------------------------- 
|---------------------------------------------------- 
|---------------------------------------------------- 
 
 
 
Meio 
 
 
|-1----1-0--1-----1-0-----1---- 
|-----3----3-----3----3-------- 
|----2----------2-------------- 
|------------------------------ 
|------------------------------ 
|------------------------------ 
 

	  

auto scroll beats size up size down change color hide chords drawings
tab show chords e-chords YouTube Clip e-chords hide all tabs e-chords go to top tab

share with facebook

Search Paypal