Land Of Talk

It's Okay

Land Of Talk

tabs

by  TERCMORAES

save to print version add songbook text version e-mail correct tuner
chordsukulelecavacokeyboardtabbassdrumsharmonicaflute Guitar Pro
close

there isn't a video lesson for this song

chords

It's Okay

	  		

Verse: 
I'm only posting the chords, not the rhythm, I'm sure you can figure it out. 

D#|--------------------------| 
B |--------------------------| 
F#|0---0--0----0--0----------| 
D#|0---0--1/0--0--0----------| 
B |0---2--2-2--0--4----------|  
E |0---2--2-2--0--4----------| 

Chorus: 

The little lead part in here is optional 

D#|---------------------------| 
B |---------------------------| 
F#|-----------4---------------| 
D#|-8-7-------0--7--0---------| 
B |-----9-7---0--7--0---------|  
E |-----------4--7--0---------|   X4 

Lyrical Interlude: 


D#|---------------------------| 
B |---------------------------| 
F#|-0-0-0-0-------------------| 
D#|-0-0-0-0-------------------| 
B |-0-2-0-4-------------------| x4 
E |-0-2-0-4-------------------| 

 
		  

See also:

tabs Three Days Grace - i hate eberything about you tabs Billy Talent - Try Honesty tabs Three Days Grace - Never Too Late tabs Nickelback - Someday tabs Nickelback - Photograph tabs Nickelback - Where Do I Hide
e-chords

Other versions:

tabs Land Of Talk - It's Okay tabs Davichi - Its Okay Thats Love (acoustic)
auto scroll beats size up size down change color hide chords drawings
tab show chords e-chords YouTube Clip e-chords hide all tabs e-chords go to top tab

share