Lady Gaga

home > Lady Gaga

Electric Chapel (intro) Tab

Lady Gaga

Difficulty: ExpertExpert

by VsWorld

tuner correct add songbook print version text version save to e-mail
chordsukulelecavacokeyboardtabbassdrumsharmonicsflute Guitar Pro
chords

Electric Chapel (intro)

(Lady Gaga, DJ White Shadow)

  		

e|-------------------------------------------------------------------------| 
B|-------------------------------------------------------------------------| 
G|-------------------------------------------------------------------------| 
D|------7-----9-----10-----9-----10-10-------------------------------------| 
A|--7-7---7-7---7-7----7-7---7-7-------------------------------------------| 
E|--5-5---5-5---5-5----5-5---5-5-------------------------------------------| 
    . .   . .   . .    . .   . . 

e|-------------------------------------------------------------------------| 
B|-------------------------------------------------------------------------| 
G|-------------------------------------------------------------------------| 
D|------7-----9-----10-----9-----10-10-------------------------------------| 
A|--5-5---5-5---5-5----5-5---5-5-5--5--------------------------------------| 
E|-------------------------------------------------------------------------| 
    . .   . .   . .    . .   . . 

e|-------------------------------------------------------------------------| 
B|-------------------------------------------------------------------------| 
G|-------------------------------------------------------------------------| 
D|------7-----9-----10-----9-----10-10-------------------------------------| 
A|--7-7---7-7---7-7----7-7---7-7-7--7--------------------------------------| 
E|--5-5---5-5---5-5----5-5---5-5-5--5--------------------------------------| 
    . .   . .   . .    . .   . . 

e|-------------------------------------------------------------------------| 
B|-------------------------------------------------------------------------| 
G|-------------------------------------------------------------------------| 
D|------7-----9-----10-----9-----10-10-------------------------------------| 
A|--5-5-5-5-5-5-5-5-5--5-5-5-5-5-5--5--------------------------------------| 
E|-------------------------------------------------------------------------| 
    . .   . .   . .    . .   . . 
 
	  

Search Paypal
auto scroll beats size up size down change color hide chords drawings
tab show chords e-chords YouTube Clip e-chords hide all tabs e-chords go to top tab