Lacuna Coil

Heaven's a lie

Lacuna Coil

tabs Beginner beginner

save to print version add songbook text version e-mail correct tuner
chordsukulelecavacokeyboardtabbassdrumsharmonicaflute Guitar Pro
close

there isn't a video lesson for this song

chords

Heaven's a lie

	  		Heavenīs a Lie 
Lacuna Coil 
 
.  - palm mute           /  - slide up to 
\  - slide down to       ~  - vibrato 
h  - hammer on           b  - Bend 
p  - pull off            Suffixes for bend 
t  - tap                 f  - full bend    h - half bend 
ph - pinched harmonic    q  - quarter bend t - tap bend 
*  - see comment         ^  - Hold bend    r release bend 
x  - Stuccatto           ~  - vibrato bend 
,  - slight palm mute    () - ghost note, sustained note 
"  - tremolo note         - Trill 
 
Tuning E A D G B e 
 
INTRO 
Gtr1                                            x4 
e|--2-3-3-2-0-0--2-3-3-2-0-0-5-5-5-5-------------| 
B|-----------------------------------------------| 
G|-----------------------------------------------| 
D|-----------------------------------------------| 
A|-----------------------------------------------| 
E|-----------------------------------------------| 
 
 
REF 
Gtr1                                            x8 
e|--2-3-3-2-0-0--2-3-3-2-0-0-5-5-5-5-------------| 
B|-----------------------------------------------| 
G|-----------------------------------------------| 
D|-----------------------------------------------| 
A|-----------------------------------------------| 
E|-----------------------------------------------| 
 
Gtr2                                            x2 
e|-----------------------------------------------| 
B|-----------------------------------------------| 
G|-----5--------------------------5--------------| 
D|-2---5---7---5---7----------2---5---7---5---4--| 
A|-2---3---7---5---7----------2---3---7---5---4--| 
E|-0-------5---3---5----------0-------5---3---2--| 
 
 
RIFF 
Gtr1&2                                          x2 
e|-----------------------------------------------| 
B|-----------------------------------------------| 
G|----------5-5-5-5------------------------------| 
D|-2-2-2-2--5-5-5-5--7-7-7-7--5-5-5-5--7-7-7-----| 
A|-2-2-2-2--3-3-3-3--7-7-7-7--5-5-5-5--7-7-7-----| 
E|-0-0-0-0-----------5-5-5-5--3-3-3-3--5-5-5-----| 
pm . . . .  . . . .  . . . .  . . . .  . . 
 
e|-----------------------------------------------| 
B|-----------------------------------------------| 
G|----------5-5-5-5------------------------------| 
D|-2-2-2-2--5-5-5-5--7-7-7-7--5-5-5-5--4-4-4-----| 
A|-2-2-2-2--3-3-3-3--7-7-5-7--5-5-5-5--4-4-4-----| 
E|-0-0-0-0-----------5-5-5-5--3-3-3-3--2-2-2-----| 
pm . . . .  . . . .  . . . .  . . . .  . . 
 
BRIDGE 
Gtr1&2                                       x2 
e|--------------------------------------------------- 
b-8-8-8-7-7-5-5-8-8-8-7-7-5-5-8-8-8/10-10-10-10-10-8 x1 
g---------------------------------------------------  
d--------------------------------------------------- 
a--------------------------------------------------- 
e|--------------------------------------------------- 
 
guitar 1 
e|------------------------5-5-5-5-- 
b---5-8-8-7-5--7-8-8-7-5---------- 
g--------------------------------- 
d---------------------------------x4 
a--------------------------------- 
e|--------------------------------- 
 
Guitar2 
 
Gtr2                                            x2 
e|-----------------------------------------------| 
B|-----------------------------------------------| 
G|-----5--------------------------5--------------| 
D|-2---5---7---5---7----------2---5---7---5---4--| 
A|-2---3---7---5---7----------2---3---7---5---4--| 
E|-0-------5---3---5----------0-------5---3---2--| 
 
 
Play again REF 
Keyboard interlude 
Play again RIFF 
Play again BRIDGE 
Play again REF 
Play again BRIDGE x2 
Keyboard interlude 
Play again REF 
 
 
OUTRO 
Gtr1                                            x4 
e|--2-3-3-2-0-0--2-3-3-2-0-0-5-5-5-5-------------| 
B|-----------------------------------------------| 
G|-----------------------------------------------| 
D|-----------------------------------------------| 
A|-----------------------------------------------| 
E|-----------------------------------------------| 
 
Gtr2 
e|-----------| 
B|-----------| 
G|-----------| 
D|----(2)----| 
A|----(2)----| 
E|----(0)----| 
 
END 

		  

Full key step upFull key step up
Half key step upHalf key step up
Half key step downHalf key step down
Full key step downFull key step down
hide glossary

See also:

tabs Lacuna Coil - A Current Obsession tabs Rhapsody - Flames of Revenge tabs Rhapsody - Symphony Of Enchanted Lands tabs Rhapsody - Wisdom Of The Kings tabs Luca Turilli - Where Heroes Lie tabs Lacuna Coil - The Secret
e-chords

Other versions:

tabs Lacuna Coil - Heaven's a lie tabs Lacuna Coil - Heavens a lie(acustic)
auto scroll beats size up size down change color hide chords drawings
tab show chords e-chords YouTube Clip e-chords hide all tabs e-chords go to top tab

share