Lacuna Coil

home > Lacuna Coil

End Of Time Tab

Lacuna Coil

Difficulty: BeginnerBeginner

by tarikike

tuner correct add songbook print version text version save to e-mail
chordsukulelecavacokeyboardtabbassdrumsharmonicsflute Guitar Pro
chords

End Of Time

  		
Intro:

|--------------8-7------------------------------------------------| 
|------8-------------------8---10-8-7-----------------------------| 
|--9-7----9----------9-9-7---9------------------------------------| 
|-----------------------------------------------------------------| 
|-----------------------------------------------------------------| 
|-----------------------------------------------------------------| 

|--------------8-7------------------------------------------------| 
|------8--------------------8--10-8-7-5---------------------------| 
|--9-7---9------------9-9-7---------------------------------------| 
|-----------------------------------------------------------------| 
|-----------------------------------------------------------------| 
|-----------------------------------------------------------------| 

|-----------------------------------------------------------------| 
|-----------------------------------------------------------------| 
|-55555555----------------------77777777--------------------------| 
|-55555555--22222222--55555555--77777777--------------------------| 
|-33333333--22222222--55555555--55555555--------------------------| 
|-----------00000000--33333333------------------------------------| 

|-----------------------------------------------------------------| 
|-----------------------------------------------------------------| 
|-55555555--------------------------------------------------------| 
|-55555555--22222222--55555555--55555777--------------------------| 
|-33333333--22222222--55555555--55555777--------------------------| 
|-----------00000000--33333333--33333555--------------------------| 

Verse: 

Play this part 2x 
|--------7--------------7-------------7---------------------------| 
|----10----10-------10---10-------10----10--------7-5-7-5-7-5-----| 
|--9---------9---9-----------9--9-----------9---------------------| 
|-----------------------------------------------5-----------------| 
|-----------------------------------------------------------------| 
|-----------------------------------------------------------------| 

then 

|--------------8-7------------------------------------------------| 
|-------8-----------------------8---10-8-7------------------------| 
|--9-7----9----------9-9-7---9------------------------------------| 
|-----------------------------------------------------------------| 
|-----------------------------------------------------------------| 
|-----------------------------------------------------------------| 

|--------------8-7------------------------------------------------| 
|------8--------------------8--10-8-7-5---------------------------| 
|--9-7----9----------9-9-7----------------------------------------| 
|-----------------------------------------------------------------| 
|-----------------------------------------------------------------| 
|-----------------------------------------------------------------| 

Chorus: 

|-----------------------------------------------------------------| 
|-----------------------------------------------------------------| 
|-55555555----------------------77777777--------------------------| 
|-55555555--22222222--55555555--77777777--------------------------| 
|-33333333--22222222--55555555--55555555--------------------------| 
|-----------00000000--33333333------------------------------------| 

|-----------------------------------------------------------------| 
|-----------------------------------------------------------------| 
|-55555555--------------------------------------------------------| 
|-55555555--22222222--55555555--55555777--------------------------| 
|-33333333--22222222--55555555--55555777--------------------------| 
|-----------00000000--33333333--33333555--------------------------| 


Verse again: 

Play this part 2x 
|--------7--------------7------------7----------------------------| 
|----10----10-------10---10-------10---10-------7-5-7-5-7-5-------| 
|--9---------9---9-----------9--9----------9----------------------| 
|---------------------------------------------5-------------------| 
|-----------------------------------------------------------------| 
|-----------------------------------------------------------------| 

then 

|-----------8-7---------------------------------------------------| 
|------8------------------8---10-8-7------------------------------| 
|--9-7---9----------9-9-7---9-------------------------------------| 
|-----------------------------------------------------------------| 
|-----------------------------------------------------------------| 
|-----------------------------------------------------------------| 

|------------8-7--------------------------------------------------| 
|-------8--------------------8--10-8-7-5--------------------------| 
|--9-7----9----------9-9-7----------------------------------------| 
|-----------------------------------------------------------------| 
|-----------------------------------------------------------------| 
|-----------------------------------------------------------------| 


Chorus 

|-----------------------------------------------------------------| 
|-----------------------------------------------------------------| 
|-55555555----------------------77777777--------------------------| 
|-55555555--22222222--55555555--77777777--------------------------| 
|-33333333--22222222--55555555--55555555--------------------------| 
|-----------00000000--33333333------------------------------------| 

|-----------------------------------------------------------------| 
|-----------------------------------------------------------------| 
|-55555555--------------------------------------------------------| 
|-55555555--22222222--55555555--55555777--------------------------| 
|-33333333--22222222--55555555--55555777--------------------------| 
|-----------00000000--33333333--33333555--------------------------| 

Then 

|-----------------------------------------------------------------| 
|-----------------------------------------------------------------| 
|-----------33333333------------77777777--------------------------| 
|-77777777--33333333--22222222--77777777--------------------------| 
|-77777777--55555555--22222222--55555555--------------------------| 
|-55555555------------00000000------------------------------------| 

|-------------------------------------------------| 
|-------------------------------------------------| 
|-----------33333333------------77777777----------| 
|-77777777--33333333--22222222--77777777----------| 
|-77777777--55555555--22222222--55555555----------| 
|-55555555------------00000000--------------------| 

Bridge (just listen to Cristina?s voice)  

|-------------------------------------------------| 
|-------------------------------------------------| 
|--3~---------------------------------------------| 
|--3~---------------------------------------------| 
|--5~---------------------------------------------| 
|-------------------------------------------------| 

Chorus 

|-------------------------------------------------| 
|-------------------------------------------------| 
|-55555555----------------------77777777----------| 
|-55555555--22222222--55555555--77777777----------| 
|-33333333--22222222--55555555--55555555----------| 
|-----------00000000--33333333--------------------| 

|-------------------------------------------------| 
|-------------------------------------------------| 
|-55555555----------------------------------------| 
|-55555555--22222222--55555555--55555777----------| 
|-33333333--22222222--55555555--55555777----------| 
|-----------00000000--33333333--33333555----------| 

Then 

|-------------------------------------------------| 
|-------------------------------------------------| 
|-----------33333333------------77777777----------| 
|-77777777--33333333--22222222--77777777----------| 
|-77777777--55555555--22222222--55555555----------| 
|-55555555------------00000000--------------------| 

|-------------------------------------------------| 
|-------------------------------------------------| 
|-----------33333333------------77777777----------| 
|-77777777--33333333--22222222--77777777----------| 
|-77777777--55555555--22222222--55555555----------| 
|-55555555------------00000000--------------------| 

End 

|-------------------------------------------------| 
|-------------------------------------------------| 
|--3~---------------------------------------------| 
|--3~------------2~-------------------------------| 
|--5~------------2~-------------------------------| 
|----------------0~-------------------------------| 
	  

Search Paypal
auto scroll beats size up size down change color hide chords drawings
tab show chords e-chords YouTube Clip e-chords hide all tabs e-chords go to top tab