La Trampa

Luna De Marzo

La Trampa

tabs nolevel nolevel

by  PAULANTUNES

save to print version add songbook text version e-mail correct tuner
chordsukulelecavacokeyboardtabbassdrumsharmonicaflute Guitar Pro
close

there isn't a video lesson for this song

chords

Luna De Marzo

	  		E|--------------------------------------------------------------| 
B|----0---0-----------0---0-----------0---0----------0----0-----| 
G|--0-------0--0----0-------0---0---0-------0--0---0----0-----0-| 
D|------4-----0---2-----------0---------4-----0--2----4-----5---| 
A|-2--------------------4---------2-----------------------------| 
E|--------------------------------------------------------------| 

E|--------------------------------------------------------------| 
B|----0---0-----------0---0-----------0---0------------0---0----| 
G|--0-------0--0----0-------0---0---0-------0----0---0------0-0-| 
D|------4-----0---2-----------0---------------------------------| 
A|-2--------------------4---------2-----0----------------0---1--2| 
E|---------------------------------------------3---2------------| 

E|--------------------------------------------------------------| 
B|----0---0-----------0---0-----------0---0----------0----0-----| 
G|--0-------0--0----0-------0---0---0-------0--0---0----0-----0-| 
D|------4-----0---2-----------0---------4-----0--2----7-----9---| 
A|-2--------------------4---------2-----------------------------| 
E|--------------------------------------------------------------| 

E|--------------------------------------------------------------------| 
B|----0---0-----------0---0-----------0---0------------0---0----------| 
G|--0-------0--0----0-------0---0---0-------0----0---0-------0--0-----| 
D|------4-----0---2-----------0---------------------------------------| 
A|-2--------------------4---------2-----0----------------0-----1--2---| 
E|---------------------------------------------3---2------------------| 
		  

See also:

tabs Misc Computer Games - Far Cry 5 - Now That This Old World Is Ending tabs Parokya ni Edgar - Gitara tabs Bruno Mars - Runaway Baby tabs Pepper - No Control tabs Misc Television - Gravity Falls Theme tabs Misc Television - Rick And Morty Theme
e-chords

Other versions:

tabs La Trampa - Luna De Marzo
auto scroll beats size up size down change color hide chords drawings
tab show chords e-chords YouTube Clip e-chords hide all tabs e-chords go to top tab

share with facebook