La renga

home > La renga

Moscas Verdes Para El Charlatán Tab

La renga

Difficulty: ExpertExpert

by emergurjao

tuner correct add songbook print version text version save to e-mail
chordsukulelecavacokeyboardtabbassdrumsharmonicsflute Guitar Pro
chords

Moscas Verdes Para El Charlatán

  		Autor: Gustavo Nápoli 


Intro 

E|----------------|----------------------* 
B|-4-2------------|-4br-2-4-------------- (esta ultima parte por 7) 
G|-----3-0-0-3-3-0|--------3-3-0-0-3-3-3- 
D|---------0-3-3--|--------------0-3-3--- 
A|----------------|---------------------- 
E|----------------|---------------------- 

* 
(Después de que se toca la intro por primera vez 
la segunda guitarra toca esto) 

Segunda guitarra( lo toca solo una vez) 

E|------------------------------------------------------18b 
B|-17-15---------17-15-17----------17-15----------17br-15-- 
G|------16-12-16----------16-12-16-------16-12-16---------- 
D|--------------------------------------------------------- 
A|--------------------------------------------------------- 
E|--------------------------------------------------------- 

Riff 1 
Palomitas de maíz 
Riff 2 
Riff 1 
para esa boca abierta 
Riff 3 
Riff 1 
Y un espejo retrovisor 
Riff 2 
Riff 1 
Para que recuerde  Riff 4 quee metio la pata 

Riff 1         Riff 2             Riff 3        Riff 4 

E|-------|-------------------|-------------|------------------------------- 
B|-------|-4br-2-------------|-------------|------------------------------- 
G|-3-3-3-|-------3---0-3--0-3|-0-3-0-3--0-3|0h3p0-0h3p0 0h3p0 0h3p0 0h3p0-- 
D|-3-3-3-|---------3-0-3--0-3|-0-3-0-3--0-3|------------------------------- 
A|-------|-------------------|-------------|------------------------------- 
E|-------|-------------------|-------------|------------------------------- 

Despues de esto la cancion es igual en las otras estrofas. 
El estribillo y los solos 
de las otras tabs estan bien. 

Queria mandar esta parte porque en las demas tabs estan mal.
	  

Search Paypal
auto scroll beats size up size down change color hide chords drawings
tab show chords e-chords YouTube Clip e-chords hide all tabs e-chords go to top tab