La renga

home > La renga

La Razon Que Te Demora-solo Tab

La renga

Difficulty: IntermediateIntermediate

by apUu

tuner correct add songbook print version text version save to e-mail
chordsukulelecavacokeyboardtabbassdrumsharmonicsflute Guitar Pro
chords

La Razon Que Te Demora-solo

  		1------------------------------------------------------------------- 
2------------10^(12)^10p8---------------s10--12-12-12-12--10--12--10 
3-7/(8)-9-7---------------9^(11)p7---7v----------------------------- 
4-7/(8)----------------------------9-------------------------------- 
5------------------------------------------------------------------- 
6------------------------------------------------------------------- 

1-----------------------------5-------------------------------------- 
27~-10-2s7-7-7--6-5-3-5-3--5/(7)-5^(7)^5^(7)^5----------------------- 
3----------------------------------------------s7---------------s7v- 
4-------------------------------------------------9-7-9p7-----------9 
5---------------------------------------------------------7p5-7p5---- 
6-------------------------------------------------------------------- 

1-------------------7h9h10-9-7----------17-15-14-14------------ 
2------------7h8h10------------15h17-15------------------------ 
3-------6h7h9-------------------------------------------------- 
4----7h9------------------------------------------------------- 
5-s10---------------------------------------------------------- 
6-------------------------------------------------------------- 

1 ------------------------------------------------------------ 
2 --------------17p15-14h15-14h15----14-----14---------------- 
3 --------------------------------16-----16-----16------------ 
4 ------------------------------------------------------------ 
5 ------------------------------------------------------------ 
6 ------------------------------------------------------------ 

1 -------------------------------------------------------------- 
2 -------------------------------------------------------------- 
3 -14/(16)-14/(16)-14^(16)^14-11---------14--------------11----- 
4 --------------------------------14/(16)---14^16)^14-12-14~---- 
5 -------------------------------------------------------------- 
6 -------------------------------------------------------------- 
	  

Search Paypal
auto scroll beats size up size down change color hide chords drawings
tab show chords e-chords YouTube Clip e-chords hide all tabs e-chords go to top tab