La renga

home > La renga

Balada Del Diablo Y De La Muerte-solo Tab

La renga

Difficulty: nolevelnolevel

by apUu

tuner correct add songbook print version text version save to e-mail
chordsukulelecavacokeyboardtabbassdrumsharmonicsflute Guitar Pro
chords

Balada Del Diablo Y De La Muerte-solo

  		BAJO: E    G        D        A                
G||------------------------------------------|    
D||------------2p0----------#----------------|x4  
A||----------------2-/-(5)-5---5-------------|    
E||(0)-0-2-(3)-------------------5-5-6-5-3-0-|    
    E              G            D               A 
G|----------------|---------------|---------------|--------------| 
D|----------------|---------------|---------------|--------------| 
A|----------------|---------------|5-5-5-5--5-55-5|--------------| 
E|-0-0-0-0-0-00-0-|-3-3-3-33-33-3-|---------------|5-55-6-5-3--0-| 

  E              G              D                A 
G|----------------|--------------|----------------|--------------| 
D|----------------|--------------|----------------|--------------| 
A|----------------|--------------|-5-5-5-5--5-55-5|--------------| 
E|-0-0-0-0-0-00-0-|-3-3-3-33-33-3|----------------|-5555555-(5)--| 



GUITARRA: 
E|------|------------------------|-------------------------------|------------------------------| 
B|------|-(11b)--------11b--10p8h|-(10)----8-7-8----8/15/--------|------------------------------| 
G|-9----|------------------------|-----------------------9-------|-(9)---9-------(7)---9--------| 
D|------|------------------------|-------------------------8h7---|----------8h7-----------8-7---| 
A|------|------------------------|-----------------------------9-|--------------9-------------9-| 
E|------|------------------------|-------------------------------|------------------------------| 

------------------------------|-----------10-------------------|-----------------10------------| 
---------------------------8-8|--8/2/-10b-----(10b)-(10b)-10-8-|-(10)---8--7--8-----8--7--8--7-| 
-------------------------9----|--------------------------------|-------------------------------| 
--7--5-7-5-7-7b--7-5-7-5------|--------------------------------|-------------------------------| 
------------------------------|--------------------------------|-------------------------------| 
------------------------------|--------------------------------|-------------------------------| 
                                                                            
--10p7-----10p7-----10p7-----10p7-----10p7-----10p7-----10p7-----10p7-----| 
-------8-7------8-7------8-7------8-7------8-7------8-7------8-7------8-7-| 
--------------------------------------------------------------------------| 
--------------------------------------------------------------------------| 
--------------------------------------------------------------------------| 
--------------------------------------------------------------------------| 
                                                
--10p7-----10p7-----10p7-----10p7------(12~~)/1/12| 
-------8-7------8-7------8-7------8-7-------------| 
--------------------------------------------------| 
--------------------------------------------------| 
--------------------------------------------------| 
--------------------------------------------------| 

*tocar esta parte bine rapido y sin parar (con la pua)                                                   
--------------------------------------------------|  |---------------------| 
--10-10-10-10-12-12-12-12-13-13-13-13-12-12-12-12-|  |10-10-10-10-12--//---| 
--------------------------------------------------|X2|---------------------| 
--------------------------------------------------|  |---------------------| 
--------------------------------------------------|  |---------------------| 
--------------------------------------------------|  |---------------------| 
                                                          
14-12--14--15p14--12-(17~~)//-|-----15--17--17b----(17br)p15| 
------------------------------|/17--------------------------| 
------------------------------|-----------------------------| 
------------------------------|-----------------------------| 
------------------------------|-----------------------------| 
------------------------------|-----------------------------| 
                                                                          Deslizar lento 
------17-(18b)------17------|--15----------------------|--------------|--12-//-2-----------| 
----------------------------|------17-19br---17--------|--15---(17~~)-|--12-//-2-----------| 
----------------------------|--------------------16----|--------------|--12-//-2-----------| 
----------------------------|--------------------------|--------------|--11-//-1-----------| 
----------------------------|--------------------------|--------------|--------------------| 
----------------------------|--------------------------|--------------|--------------------| 
	  

Full key step upFull key step up
Half key step upHalf key step up
Half key step downHalf key step down
Full key step downFull key step down
Search Paypal
auto scroll beats size up size down change color hide chords drawings
tab show chords e-chords YouTube Clip e-chords hide all tabs e-chords go to top tab