La renga

home > La renga

Al Que He Sangrado Tab

La renga

Difficulty: nolevelnolevel

by hebealmeida

tuner correct add songbook print version text version save to e-mail
chordsukulelecavacokeyboardtabbassdrumsharmonicsflute Guitar Pro
chords

Al Que He Sangrado

(Gustavo F. Nápoli)

  		bueno este es el primer solo, de la voersion insoportablemente.... 

solo: 

referencias: 
~~:vibrar 
br:estirar y bajar 
b:estirar 
p:pull off 
h:hamer on 
/:eslide 

|------------------------------------------------------ 
|-------------------------------15--------------------- 
|-12b~~--12---------12--14br12-14-----14-14br12-12----- 
|-14b~~----14p12-14--14-----------------------------14-- 
|------------------------------------------------------ 
|------------------------------------------------------ 

-15-----15-----15-----15----17/19------------------------------ 
-15-----15-----15-----15----------15--15-15--17-17b-17-17b--17- 
-12/10--12/10--12/10--12/10------------------------------------ 
--------------------------------------------------------------- 
--------------------------------------------------------------- 
--------------------------------------------------------------- 

-------------------------------------------------------------- 
-7-7-7--8-8~--7h8p7------------------------------------------- 
--------------------9p7-9p7--7h9-----------7-7--9br-9-9br-7--- 
---------------------------------9-7---7h9-------------------- 
-------------------------------------------------------------- 
-------------------------------------------------------------- 

----------------------------| 
------10------12-10~~-------| 
-9/11------11---------------| 
----------------------------| 
----------------------------| 
----------------------------| 


bueno, esta es una correcion del que estaba, 
espero que les salga, ante cualquier duda 
consultenme a [email protected] 
chau y saludos a salto.
	  

Search Paypal
auto scroll beats size up size down change color hide chords drawings
tab show chords e-chords YouTube Clip e-chords hide all tabs e-chords go to top tab