save to print version add songbook text version e-mail correct tuner
chordsukulelecavacokeyboardtabbassdrumsharmonicaflute Guitar Pro
close

there isn't a video lesson for this song

chords

Matadero

	  		Intro 
1|----------------------------------|---------------------------------------| 
2|-3/5--5/3----------3/5--5/3----3--|-3/5--5/3------------------------------| 
3|----------4/2-0--------------4----|----------4/2-0------------------------| 
4|----------------------------------|---------------2-0-2^0-2^0-2^0-2^0-2^0-| 
5|----------------------------------|---------------------------------------| 
6|----------------------------------|---------------------------------------| 

1|---------------------------------------------------------| 
2|--------0--------2-----------------------0-0-0-0-0-0-0-0-| 
3|--------2--------2-----------------------2-2-2-2-2-2-2-2-| 
4|--------1--------2-----------------------1-1-1-1-1-1-1-1-| 
5|--0-1-2-2----2-0-0-----2------2-5p2--4p2-2-2-2-2-2-2-2-2-| 
6|--------------------b3-0-0h3h4---------------------------| 


Base De Estrofa 
1|---------------------------------------------------------x2|--------------| 
2|-----------------------------------------------------------|--------------| 
3|-----------------------------------------------------------|--------------| 
4|--2-2-2-2-2-2-2-2------------------------------------------|--------------| 
5|--0-0-0-0-0-0-0-0-2-------2-5p2--4p2-2-------2-5p2--4p2----|--9-9-9-9--7--| 
6|------------------0-0h3h4------------0-0h3h4---------------|--7-7-7-7--5--| 

1|----------------------------------|---------------------------------------| 
2|-3/5--5/3----------3/5--5/3----3--|-3/5--5/3------------------------------| 
3|----------4/2-0--------------4----|----------4/2-0------------------------| 
4|----------------------------------|---------------2-0-2^0-2^0-2^0-2^0-2^0-| 
5|----------------------------------|---------------------------------------| 
6|----------------------------------|---------------------------------------| 

1|---------------------------------------------------------| 
2|--------0--------2-----------------------0-0-0-0-0-0-0-0-| 
3|--------2--------2-----------------------2-2-2-2-2-2-2-2-| 
4|--------1--------2-----------------------1-1-1-1-1-1-1-1-| 
5|--0-1-2-2----2-0-0-----2------2-5p2--4p2-2-2-2-2-2-2-2-2-| 
6|--------------------b3-0-0h3h4---------------------------| 


A                                            Mí 
El Flaco Entra Como Siempre Al Matadero A Las Diez 

A                                       Mí 
Y Todo El Día Corta Carne, Hueso Y Media Res 

B                   A 
Mientras Descansa Se Pone A Pensar 
Riff 
Este Trabajo No Es Para Mí... Como Fue Que Llegue Aquí 

Una Familia Numerosa No Te Deja Elegir 
Y El Matadero Es Una Escusa Para Sobrevivir 
Comer Es Algo Que No Puede Esperar 
Carga La Carne Sobre El Camión... Y Siempre A La Vista Del Patrón 


Base Solo 
1|---------------------------------------------------------x2| 
2|-----------------------------------------------------------| 
3|-----------------------------------------------------------| 
4|--2-2-2-2-2-2-2-2------------------------------------------| 
5|--0-0-0-0-0-0-0-0-2-------2-5p2--4p2-2-------2-5p2--4p2----| 
6|------------------0-0h3h4------------0-0h3h4---------------| 

1|------------------------------------------------------|-2-2-2-2-2-| 
2|------------------------------------------------------|-0-0-0-0-0-| 
3|-4-4-4-4-4-4------------------------------------------|-2-2-2-2-2-| 
4|-4-4-4-4-4-4----2-------2-5p2--4p2--------------------|-1-1-1-1-1-| 
5|-2-2-2-2-2-2----0-0h3h4------------2-------2-5p2--4p2-|-2-2-2-2-2-| 
6|-----------------------------------0-0h3h4------------|-----------| 


A7 - A7 - E7 - E7 

A7 - A7 - E7 - E7 

B7 - A7 - Intro 


Es La Verdad Que A Dos Patrones No Se Puede Servir, No No No 
Si No Es Con Dios Es Con El Diablo Que Tenes Que Vivir 
Uno Te Quita El Otro Te Da 
El Diablo Paga Del Uno Al Diez... Que Dios Te Ayude A Fin De Mes 

Mañana El Flaco Toma Un Micro Que Lo Lleva Hacia El Bar 
Y Nunca Más Matadero, Nunca Más Afanar 
No Es Mas Esclavo, Libre Al Fin!!! 
Pero Esa Noche Sueña Otra Ves... Que Carga Al Hombro Media Res 

1|--------1------------x3|------------------------------------------0-| 
2|--------0-------2------|-5-3p0------------------------------------0-| 
3|--------2-------2------|-------3-2p0---2p0----0^1-0^1-0^1-0^1-----1-| 
4|--------1-------2------|-------------2------2---------------------2-| 
5|--0-1-2-2--2-0--0------|------------------------------------------2-| 
6|-----------------------|------------------------------------------0-| 
		  

Full key step upFull key step up
Half key step upHalf key step up
Half key step downHalf key step down
Full key step downFull key step down
hide glossary

See also:

tabs Ira! - Nucleo De Base tabs Deep Purple - Smoke on the Water (correct) tabs Deep Purple - Strange kind of woman tabs Deep Purple - Smoke On Water tabs Deep Purple - Black Night(Ver.2) tabs Deep Purple - Money Talks
e-chords

Other versions:

tabs La Mississippi Blues Band - Matadero
auto scroll beats size up size down change color hide chords drawings
tab show chords e-chords YouTube Clip e-chords hide all tabs e-chords go to top tab

share