La Femme

Elle Ne Taime Pas

La Femme

tabs

by  EDUCASTILHO

save to print version add songbook text version e-mail correct tuner
chordsukulelecavacokeyboardtabbassdrumsharmonicaflute Guitar Pro
close

there isn't a video lesson for this song

chords

Elle Ne Taime Pas

	  		

Chorus 1 & 2 
e|10-13----| 
B|------11-| 
G|---------| 
D|---------| 
A|---------| 
E|---------| x4 


verse 2 (Second Half) 
e|10-13-10-13-10----| 
B|---------------11-| 
G|------------------| 
D|------------------| 
A|------------------| 
E|------------------| x4 

Chorus 3 
e|10-8-------------|---------10----------| 
B|-----10----------|---10-11-------------| 
G|--------10-------|10----------10-------| 
D|-----------12----|---------------12----| 
A|--------------13-|------------------13-| 
E|-----------------|---------------------| x2 

To End(Repeat and end on e|10) 
e|10-10-10-10-9-| 
B|--------------| 
G|--------------| 
D|--------------| 
A|--------------| 
E|--------------|  


(Other parts that he sometimes plays on the guitar live) 
e|---------10------|---------10------| 
B|------10----10---|------11----11---| 
G|---10---------10-|---10---------10-| 
D|12---------------|12---------------| 
A|-----------------|-----------------| 
E|-----------------|-----------------| 

e|8-10-8------8-10-8-------------|8-10-8------------8----------| 
B|-------10----------10----------|-------10---10-11------------| 
G|----------10----------10-------|----------10--------10-------| 
D|-------------------------12----|-----------------------12----| 
A|----------------------------13-|--------------------------13-| 
E|-------------------------------|-----------------------------| 
		  

See also:

tabs Ira! - Envelheço na Cidade tabs Deep Purple - Smoke On Water tabs Ira! - Inundação de Amor tabs Deep Purple - Stormbringer tabs Deep Purple - Money Talks tabs Ira! - A vida por um fio
e-chords

Other versions:

tabs La Femme - Elle Ne Taime Pas
auto scroll beats size up size down change color hide chords drawings
tab show chords e-chords YouTube Clip e-chords hide all tabs e-chords go to top tab

share